Аккорды Harry Manx - Long Black Veil

Добавлено: @romashka
Дата добавления: 13 Февраля 2024г.
Рейтинг:
0.0
Просмотров: 90
[Intro]

D |-0h2-2s4--4s2-0-0--2s4--------7s9s7----------------------------------------|
A |-----------------------5s2s5--------7-7s9----------------------------------|
F#|---------------------------------------------------------------------------|
D |---------------------------------------------------------------------------|
A |--------0-------------0----------------------------------------------------|
D |-0--------------------------0------------0---------------------------------|

[Lick 1]

D |---------------------------------------------------------------------------|
A |---------------------------------------------------------------------------|
F#|---------------------------------------------------------------------------|
D |-2-2s4---------------------------------------------------------------------|
A |---------------------------------------------------------------------------|
D |---------------------------------------------------------------------------|

[Lick 2] 

D |-0h2-2s4--4s2-0-0----------------------------------------------------------|
A |---------------------------------------------------------------------------|
F#|---------------------------------------------------------------------------|
D |---------------------------------------------------------------------------|
A |---------------------------------------------------------------------------|
D |-0---------------0---------------------------------------------------------|

[Lick 3] 

D |-7s9--7s9--7---------------------------------------------------------------|
A |---------------------------------------------------------------------------|
F#|---------------------------------------------------------------------------|
D |---------------------------------------------------------------------------|
A |---------------------------------------------------------------------------|
D |---------------------------------------------------------------------------|

[Verse 1]

D
Ten years ago, on a cold dark night,
          A                         D                D   (Lick 1)
there was someone killed 'neath the town hall light.
D
There were few were at the scene, but they all agreed,
         A                       D            D   (Lick 2)
that the stranger who ran looked a lot like me.

[Chorus]

   G           D           G          D    (Lick 3)
She walks these hills, in a long black veil.
    G         D               A            D   (Lick 2)
She visits my grave, when the night winds wail.  

[Verse 2]

D
The judge said, 'Son, what is your alibi?
            A                       D                  D   (Lick 2)
If you were somewhere else well you won't have to die.'
D
I spoke not a word though it meant my life,
          A                      D                 D   (Lick 2)
for I had been in the arms of my best friend's wife.

[Chorus]

    G           D           G          D   (Lick 3)
She walks these hills, in a long black veil.
    G         D               A           D   (Lick 2)
She visits my grave, when the night winds wail.
D             G      D     G      A          D   (Lick 3)
Nobody knows, nobody sees..nobody knows, but me.
D             G      D     G      A          D   (Lick 3)
Nobody knows, nobody sees..nobody knows, but me.

[Verse 3]

D
The scaffold is high, and eternitys near..
    A                      D              D   (Lick 2)
she stood in the crowd and shed not a tear.
D
But sometimes at night when the cold wind blows,
     A                    D                  D   (Lick 2)
in a long black veil, she cries o'er my bones.

[Chorus]

    G           D           G          D   (Lick 3)
She walks these hills, in a long black veil.
    G         D               A           D   (Lick 2)
She visits my grave, when the night winds wail.
D             G      D     G      A          D   (Lick 3)
Nobody knows, nobody sees..nobody knows, but me.

[Outro]
G      A         D    G      A         D   (Lick 3)
Nobody knows but me...nobody knows but me.         (Fade.)

************************************

| h  Hammer-on

************************************  
Без музыки жизнь была бы заблуждением (Ницше)
Мы стремимся к созданию контента, соответствующего всем нормам законодательства и уважающего интеллектуальную собственность. Мы также придаем большое значение тому, чтобы не задеть никого и не оскорбить чьи-либо чувства. Если у вас есть вопросы или претензии по размещенному материалу, пожалуйста, сообщите нам об этом.
Шрифт
-
0
+
Прокрутка
-
0
+
Стоп
Наверх