Аккорды Harry Styles - Sweet Creature

Добавлено: @romashka
Дата добавления: 05 Августа 2021г.
Рейтинг:
0.0
Просмотров: 152
Транспонировать - +
Intro

e|---------------|----|----|-------------|---|----|-----------|---|---|-----------|-------------|
B|--0---------0--|--5-|--3-|--0--------0-|-5-|-3--|-0-------0-|-5-|-3-|-0-------0-|-0---------0-|
G|-------0-------|----|----|-------0-----|---|----|-----0-----|---|---|-----0-----|------0------|
D|-----0---0-----|----|----|-----0---0---|---|----|---0---0---|---|---|---0---0---|----0---0----|
A|---------------|--3-|--2-|-------------|-3-|-2--|-----------|-3-|-2-|-----------|-------------|
E|--3------------|----|----|--3----------|---|----|-3---------|---|---|-3---------|-3-----------|

Verse

e|---------------|---|---|-------------|-------------|------------|------------|-------------|------------|
B|--0---------0--|-5-|-3-|--0--------0-|-0---------0-|-8--------8-|-7--------7-|-5---------5-|-0--------0-|
G|-------0-------|---|---|-------0-----|------0------|------9-----|------7-----|------5------|-----0------|
D|-----0---0-----|---|---|-----0---0---|----0---0----|----9---9---|----7---7---|----5---5----|---0---0----|
A|---------------|-3-|-2-|-------------|-------------|-7----------|-5----------|-3-----------|------------|
E|--3------------|---|---|--3----------|-3-----------|------------|------------|-------------|-3----------|

e|---------------|---|---|-------------|-------------|------------|------------|-------------|------------|
B|--0---------0--|-5-|-3-|--0--------0-|-0---------0-|-8--------8-|-7--------7-|-5---------5-|-0--------0-|
G|-------0-------|---|---|-------0-----|------0------|------9-----|------7-----|------5------|-----0------|
D|-----0---0-----|---|---|-----0---0---|----0---0----|----9---9---|----7---7---|----5---5----|---0---0----|
A|---------------|-3-|-2-|-------------|-------------|-7----------|-5----------|-3-----------|------------|
E|--3------------|---|---|--3----------|-3-----------|------------|------------|-------------|-3----------|

Pre-Chorus

e|------------|------------|------------|-----------|---------|-3---------|------------|-0----------------|
B|-1--------1-|-1--------1-|-0--------0-|-0-------0-|-0-------|---------0-|-3--------3-|----------3-------|
G|------2-----|------2-----|------0-----|-----0-----|-----0---|-----0-----|------2-----|------2-----------|
D|----2---2---|----2---2---|----2---2---|---2---2---|---0---0-|---0---0---|-0--0---0---|-0--0---2---------|
A|-0----------|-0----------|-2----------|-----------|---------|-----------|------------|------------------|
E|------------|------------|------------|-0---------|-3-------|-3---------|------------|------------------|

e|------------|------------|------------|-----------|---------|-3---------|
B|-1--------1-|-1--------1-|-0--------0-|-0-------0-|-0-------|---------0-|
G|------2-----|------2-----|------0-----|-----0-----|-----0---|-----0-----|
D|----2---2---|----2---2---|----2---2---|---2---2---|---0---0-|---0---0---|    
A|-0----------|-0----------|-2----------|-----------|---------|-----------|
E|------------|------------|------------|-0---------|-3-------|-3---------|
Наверх