Аккорды «Hatebreed»

Hatebreed
Группа "Hatebreed" образовалась в 1994 году в городе Нью-Хейвен, штат Коннектикут. В ее первый состав вошли вокалист Джейми Джаста, гитаристы Шон Мартин и Лу "Баулдер" Ричардс, барабанщик Ригг Росс и басист Крис Битти. Идея, которая подвигла этих парней на создание "Hatebreed", была проста – им казалось, что не существует достаточно тяжелой брутальной хардкор-команды, и такое положение вещей необходимо исправить. Среди ориентиров, выбранных ребятами, были "Celtic frost", "Madball", "Biohazard",… Читать полностью... Группа "Hatebreed" образовалась в 1994 году в городе Нью-Хейвен, штат Коннектикут. В ее первый состав вошли вокалист Джейми Джаста, гитаристы Шон Мартин и Лу "Баулдер" Ричардс, барабанщик Ригг Росс и басист Крис Битти. Идея, которая подвигла этих парней на создание "Hatebreed", была проста – им казалось, что не существует достаточно тяжелой брутальной хардкор-команды, и такое положение вещей необходимо исправить. Среди ориентиров, выбранных ребятами, были "Celtic frost", "Madball", "Biohazard", ну и, конечно же, "Slayer", у которого были позаимствованы металлизированные риффы. Первые несколько лет команда ковала себе славу, играя концерты по всем окрестностям. Музыканты исколесили практически все Восточное побережье, причем им удалось поиграть в одной связке с "Deftones", "Entombed", "Slayer" и "Napalm death". Наконец в 1996-м "Hatebreed" подписались на лейбл "Victory records", который в том же году выпустил демо-EP "Under The Knife". Это релиз оказался самой продаваемой демкой. На следующий год группа выдала уже полноценный дебютный альбом "Satisfaction Is The Death Of Desire". Все бы ничего, да только отношения с лейблом у музыкантов не заладились и контракт был утерян. Помимо этого начались кадровые флуктуации, квинтет превратился в квартет, а новым членом команды стал ударник Мэтт Бирн. Положение удалось выправить только в 2001 году, когда коллектив оказался под крышей "Universal". "Hatebreed" нужно было срочно записывать второй альбом, и из-за этого пришлось отложить выгодные гастроли в компании со "Slayer". Впрочем, срыв этот компенсировался тем, что на "Perseverance" погостил Керри Кинг, помогший записать одну композицию. Продюсировал же пластинку Мэтт Хайнд. За несколько лет у музыкантов накопилось изрядное количество материала, и поэтому для альбома были отобраны только лучшие песни. В результате фаны получили букет из 16 композиций, звучащих чуть более 30 минут. Но в эти полчаса парни вложили столько сил и энергии, что диск просто обязан был иметь успех. На самом деле так и произошло, и "Perseverance" вошел в чарты "Billboard", заняв 50-ю строчку. За первую неделю продаж было раскуплено 28 000 экземпляров пластинки, а общий тираж потом добрался до двухсоттысячной отметки, что для жанра, в котором играют "Hatebreed", очень даже неплохо. Такое положение дел и последовавшие успешные гастроли подстегнули интерес к первому альбому коллектива, и его продажи поднялись до 150 000 копий. Команда теперь каталась не только по Америке, но посетила также Европу (в компании с "Biohazard", "Agnostic front", "Discipline" и другими), Японию (в качестве хедлайнеров) и Австралию (на разогреве у "Soulfly"). "Hatebreed" везде принимали хорошо, и воодушевленные музыканты выдали на следующий год еще более убойный альбом "The Rise Of Brutality", занявший уже 30-е место в штатовских чартах, а сами Hatebreed в его поддержку организовали «Rise Of Brutality Tour», в котором группу согласились сопровождать Shadows Fall, Six Feet Under и Death Threat. К концу 2003 года тираж Rise Of Brutality достиг 300 000 копий. В 2006 году группа издала свой новый альбом Supremacy. Скрыть...
Популярные аккорды Hatebreed:
алфавиту | просмотрам | случайно
  • Tuning: Cb-Fb-Bb-Eb-Gb-Cb
    (The tuning may be off)
    
    .=palm mute
    /or= slide
    ~= let ring
    
    (Intro-both guitars)
    Heavy Distortion
    
    Cb------------------------:
    Gb------------------------:
    Eb--------------0-4-3-----:
    Bb--------------0-2-5-----:
    Fb--3--2-2-2-2---------2~-:
    Cb--1--0-0-0-0---------0~-:…
  • Tuning: C G C F
    
    Intro and Chorus
    F---------------------------------------------
    C---------------------------------------------
    G---------------------------------------------
    C--2-2---5-5-5----3-3---2-2-2---3-3-3---------
    
    Verse
    F---------------------------------------------------
    C---------------------------------------------------
    G---------------------------------------------------
    C--5---7---5---7---5---2---5---5-5-5--3--2-2-2-2-2--
    
    Outro
    F-----------------------------
    C-----------------------------
    G-----------------------------
    C--2--2--2--2--2---2----------…
  • Tuning : CGCFAD
    
    
    d|------------------------------||-------------------|
    a|------------------------------||-------------------|
    f|------------------------------||-------------------|
    c|--7--5--8-------7-----7-------||-5-5-5-5-5-5-8-8-8-|
    g|--5--3--6-------5-----5-------||-3-3-3-3-3-3-6-6-6-|
    C|-----------0-0-0--0-0-0--0-0-0||-------------------|
    
    d|-----------------------------------------|
    a|-----------------------------------------|
    f|-----------------------------------------|
    c|-0---------------------------------------|
    g|-0-------7-------6------4p0---4p0---4p0--|
    C|-0--0-0--7--0-0--6--0-0-4p0-0-4p0-0-4p0--|…
  • Tuning: CGCFAD
    
    Another killer hatebreed song.      x=palm mute
    
    ----------------------------------
    ----------------------------------
    ----------------------------------
    ----------------------------------
    -0-1-0-00-0-4-3-0-1p0-1-0-00-04-03
    -0-1-0-00-0-4-3-0-1p0-1-0-00-04-03…
  • Tuning: C,G,C,F
    
    
    Intro and Verse:
    
    
    
    F|-----------------------|
    C|-----------------------|
    G|-5----6----9-8-6-6-6-6-|
    C|--0000-0000------------|
    
    
    
    F|-------------------------------|
    C|-------------------------------|
    G|-9--9--9--9-9-9-8--8--8--8-8-8-|
    C|-------------------------------|…
  • Tuning: CGCFAD
    Palm-mute=*
    
    Intro/Chorus
    ---------------------------------------------
    ---------------------------------------------
    ---------------------------------------------
    ---------------------------------------------
    -3-0--3-4-3-0-0--1-3-1-0-0--3-4-3-0-0-0-0-0-0
    -3-0--3-4-3-0-0--1-3-1-0-0--3-4-3-0-0-0-0-0-0…
  • Tuning C G C F A D (Drop D)
    
    ------------------------------------------------------------------------------|
    ------------------------------------------------------------------------------|
    ------------------------------------------------------------------------------|
    ------------------------------------------------------------------------------|
    ------------------------------------------------------------------------------|
    -3-000-3-00-3-0-321-3-000-3-00-3-0-321-3-000-3-00-3-0-321-3-000-3-00-3-0-321--|…
  • ------------------------------------------------------------------------------|
    ------------------------------------------------------------------------------|
    ------------------------------------------------------------------------------|
    ------------------------------------------------------------------------------|
    ------------------------------------------------------------------------------|
    -0000000000000000000000000000000000000000000000000000000000000000000000000000-…
  • C-TUNING : C-F-Bb-Eb-G-C
    
    
    
    
    Intro:
    
    C#|-------------------------------------------------------------|
    G#|-------------------------------------------------------------|
    E#|-------------------------------------------------------------|
    B#|---------------------------------------------9-9-9-9-9-9-9-9-|
    F#|-2-------------------------------------------7-7-7-7-7-7-7-7-|
    C#|-0-0-0-0-0-0-0-0-0-0-0-0-0-0-0-0-0-0-0-0-0-0-----------------|…
  • Tuning:    drop "C"
    
    x:         palm mute
    
    d|---------------------------| X1 (INTRO)
    A|---------------------------|
    F|---------------------------|
    C|-0------3-6-5-3------------|
    G|-0------3-6-5-3------------|
    C|-0------3-6-5-3------------|
    
    d|---------------------------|-------------------------|…
  • Tuning from Low to High: C G C F A D
    PM - Palm Mute
    
    Intro
    ~~~~~
    |------------------|---|
    |------------------|---|
    |------------------|---|
    |--0-0-1-3-4-3-1-3-|-0-|
    |--0-0-1-3-4-3-1-3-|-0-|
    |--0-0-1-3-4-3-1-3-|-0-|
    PM -…
  • (C G C F A D)
    
    |-----------------|
    |------(x4)-------|
    |-----------------|
    |-1p0---3-3---0-1-|
    |-1p0---3-3---0-1-|
    |-1p0---3-3---0-1-|
    
    
    |---------------------------------------------------------------|---|
    |---------------------------------------------------------------|---|
    |---------------------------------------------------------------|---|
    |-1p0---3-3---0-1--0-0-0-000-00---1p0---3-3---0-1--0-0-0-0-0-0--|-0-|
    |-1p0---3-3---0-1--0-0-0-000-00---1p0---3-3---0-1--0-0-0-0-0-0--|-0-|
    |-1p0---3-3---0-1--0-0-0-000-00---1p0---3-3---0-1--0-0-0-0-0-0--|-0-|
    PM…
  • Tune to Dropped C
    
    Intro 
    |----------------------------------------------------------------------------------------------------|
    |----------------------------------------------------------------------------------------------------|
    |----------------------------------------------------------------------------------------------------|
    |----------------------------------------------------------------------------------------------------|
    |-0-0-0--0-0--0-0--0-0----0-0-0--0-0--0-3--0-0----0-0-0--0-0--0-0--0-0----0-0-0--0-0--0-3--1-1--1-4--|
    |-0-0-0--0-0--0-0--0-0----0-0-0--0-0--0-3--0-0----0-0-0--0-0--0-0--0-0----0-0-0--0-0--0-3--1-1--1-4--|…
  • Tuned to Drop C (C-G-C-F-A-D)
    
    |-------------|
    |-------------|
    |-------------|
    |-0-----------|
    |-0---------0-|
    |-0---------0-|
    
    |-------------------------------|
    |-------------------------------|
    |-------------------------------|
    |-0-0--0-3-0--0-0-0-…
  • Drop C
    
    Intro
    |----------------------|
    |----------------------|
    |----------------------|
    |3-5--3-1--1-4--2--1-1-|
    |3-5--3-1--1-4--2--1-1-|x4 (4th time, hold the 1st fret)
    |3-5--3-1--1-4--2--1-1-|
    
    Riff 1
    |------|
    |------|
    |------|
    |0-0-0-|
    |0-0-0-|
    |0-0-0-|
    
    Riff…
  • Tuning: C,G,C,F
    
    
    Intro:
    
    F|------------------------|
    C|------------------------|
    G|--------------1~--------|
    C|-4-3-0~~~-3-4----4-3-1~-|
    
    Verse 1:
    
    F|----------------------------|
    C|----------------------------|
    G|-----5-3-6-----5-3-6--------|
    C|-000-------000-------000000-|
    
    Verse…
  • Tuning: Drop C (C G C F A D)
    
    Intro & Verse riff:
    
    D|-------------------------------------------------------------------------|
    A|-------------------------------------------------------------------------|
    F|-------------------------------------------------------------------------|
    C|-------------------------------------------------------------------------|
    G|-6----6----6----6--------------------------------------------------------|
    C|-6----6----6----6----0--0-0-0-0-0-0-0-0-0-0-0-0-0-0----------------------|
    PM…
  • Tuning:Drop C
    
    Have fun guys.
    
    RIFF 1
    
    e|---------------------------------------------------------------------------|
    B|---------------------------------------------------------------------------|
    G|---------------------------------------------------------------------------|
    D|---------------------------------------------------------------------------|
    A|-365030-365030-365030-763632-----------------------------------------------|
    E|-365030-365030-365030-763632-----------------------------------------------|
    
    RIFF…
  • CGCFAD tuning
    e---------------------------|
    b---------------------------|
    g---------------------------|
    d-4--1-1--1-1-1--0--3-1-1---|
    a-4--1-1--1-1-1--0--3-1-1---|
    e-4--1-1--1-1-1--0--3-1-1---|   (x4)
    
    e--------------|
    b--------------|
    g--------------|
    d-5-4-0--4-3-1-|
    a-5-4-0--4-3-1-|
    e-5-4-0--4-3-1-|…
  • Verse							   Chorus
     E|---------------------------------------------------------------|-----------|
     B|---------------------------------------------------------(x )--|-----------|
     G|--4-4-4-4-4-4--2-2-2--5-5-5---4-4-4-4-4-4--7-7-7--9-9-9--------|--4-4-4-4--|…
  • Tuning: drop c
    
    e|-----------------------------------------------|-------|
    B|-------------------------------------------(x5)|-------|
    G|-----------------------------------------------|-------|
    D|-2--------2--------2--------2--------3-6-5-3---|-2~~-0-|…
  • Notation:
       .  - palm mute
       R  - abrupt stop (mute)
       -> - indicates when to play a riff
     
       Tuning: C (C F Bb Eb G C)
     
     
       RIFF A:
       -------
     
       |---------------------------------|---------------------------------|…
  • Tuning: Down one step (DGCFAD)
      LEAD IN
      |---------------|
      |---------------|
      |---------------|
      |-4---3---4---6-|
      |-4---3---4---6-|
      |-4---3---4---6-|
    
    
        RIFF A1
      |-----------------------------------------------------------------|…
  • Tuning: DROP C
    
       RIFF 1       RIFF 2
    e|---------------------------------------------------------------------------|
    B|---------------------------------------------------------------------------|
    G|---------------------------------------------------------------------------|
    D|-639863-------0-----------3------------------------------------------------|
    A|-639863-------0-00000-00003-00-7p6-7p6-------------------------------------|
    E|-639863-------0-00000-00003-00-7p6-7p6-------------------------------------|…
  • Tune to Dropped C
    
    Intro/Verse                      Pre-chorus
    |------------------------------|--------|
    |------------------------------|--------|
    |-----------------------7-8-6--|-7-8-6--|
    |-3--------------3------7-8-6--|-7-8-6--|
    |-3--00001-0-1-0-3--00005-6-4--|-5-6-4--|
    |-3--00001-0-1-0-3--0000-------|--------|
    pm…
  • "All the prayers in the world..."    "Taken from this earth..."
    1||-----------------|-----------------||-----------------|-----------------|
    2||-----------------|-----------------||-----------------|-----------------|
    3||-----------------|-----------------||-----------------|-----------------|
    4||-----------------|-----------------||-----------------|-----------------|
    5||-2-----6-5---2---|-6---5---2-5-----||-3-2-2-5-2-2-2-2-|-3-2-2-5-2-2-2-2-|
    6||-0-----4-3---0---|-4---3---0-3-----||-1-0-0-3-0-0-0-0-|-1-0-0-3-0-0-0-0-|…
  • Intro:
    
    |------------------------------------|
    |------------------------------------|
    |------------------------------------|
    |-0~~~---6~~~--0~~~--6~~~------------|
    |-0~~~---6~~~--0~~~--6~~~------------|  2x
    |-0~~~---6~~~--0~~~--6~~~------------|…
  • Tuning Drop B
    
    Intro
    Gtr1
    e-------------------------|  Repeat about 10 times
    b-------------------------|  Guitar2 fades in about after 1
    g-------------------------|
    d------------------------4|
    a---5---5---5/6-----5/6---|
    e-0---0---0-------0-------|
    
    
    Gtr2…
  • Intro/Verse
    |-------------------------------|--------------------------|
    |-------------------------------|--------------------------|
    |-------------------------------|--------------------------|
    |-------------------------------|--------------------------|
    |-6--000-0-0--0-0-3-5-3-6--3-5--|-6--000-0-0--0-0-3--1--4--|
    |-6--000-0-0--0-0-3-5-3-6--3-5--|-6--000-0-0--0-0-3--1--4--|…
  • Tuning: C,G,C,F
    
    
    Intro:
    
    
    F|-----------------------|
    C|-----------------------|
    G|-----------------------|
    C|-11-0-0-0-43-3-3-0~~-0-|
    
    
    Verse:
    
    
       This is the...
    
    F|---------------|-------------|
    C|---------------|-------------|
    G|---------------|---------6-6-|
    C|-11-0-43-3-3-3-|-0000000-----|
    
    F|---------------|----------------|
    C|---------------|----------------|
    G|---------------|------6-9-8-7-6-|
    C|-11-0-43-3-3-3-|-11-0-----------|
    
    
    Chorus:…
  • Tuning: C G C F A D (drop D, whole step down)
    
    ------------------------------------------------------------------------------
    ------------------------------------------------------------------------------
    ------------------------------------------------------------------------------
    ------------------------------------------------------------------------------
    -3-2-1-5-4-3-0----------------------------------------------------------------
    -3-2-1-5-4-3-0----------------------------------------------------------------
    
    
    ------------------------------------------------------------------------------
    ------------------------------------------------------------------------------
    ------------------------------------------------------------------------------
    ------------------------------------------------------------------------------
    -----------------1-3-2-5------------------------------------------------------
    -0-0-0-0-0-0-0-0-1-3-2-5------------------------------------------------------
    (x8)
    
    ------------------------------------------------------------------------------
    ------------------------------------------------------------------------------
    ------------------------------------------------------------------------------
    ------------------------------------------------------------------------------
    -1-0-3-0----0-0-3-0--1-1-0-3-0--5-5-5--1-1-1--------0-------------------------
    -1-0-3-0----0-0-3-0--1-1-0-3-0--5-5-5--1-1-1--------0-------------------------
    (x4)…
  • Drop D
    palm mute= *
    
    Chorus:
    D|----------------------------------|x1
    A|----------------------------------|
    F|----------------------------------|
    C|-6-6-6-5---6-6-6-5---6-6-6-5--3-0-|
    G|-6-6-6-5---6-6-6-5---6-6-6-5--3-0-|
    C|-6-6-6-5---6-6-6-5---6-6-6-5--3-0-|
    
    Verse…
  • D||-------------------|-------------------|-----------------------|
    A||-------------------|-------------------|-----------------------|
    F||-------------------|-------------------|-----------------------|
    C||--0----------------|--L----------------|-----------------------|
    G||--0----------------|--L----------------|-----------------------|
    C||--0----------------|--L----------------|--0-0-0----------------|…
  • Part 1:
    e|---------------------------------------------------------------------------|
    B|---------------------------------------------------------------------------|
    G|---------------------------------------------------------------------------|
    D|--3p0--0-1/4--4-43--3-1/3--3----------------------------------------------|
    A|--3p0--0-1/4--4-43--3-1/3--3----------------------------------------------|
    D|--3p0--0-1/4--4-43--3-1/3--3----------------------------------------------|
    
    Part…
  • Notation:
      .  - palm mute                ~  - vibrato
        - slide down               b  - bend
      /  - slide up                    f  - full
      h  - hammer on                   h  - half
      p  - pull off…
  • Tune down to C,F,Bb,Eb. This song is easy. Just listen to the song.
    
    Intro 8x
    Eb:---------------
    Bb:---------------
    F:----------------
    C:-0-4-3-0-4-3-0-3
    
    Verse 3x           1x
    Eb:---------------|--------------------
    Bb:---------------|--------------------
    F:----------------|-7777-6666-5555-6666
    C:-1-0-0-2-0-0-0-0|--------------------
    
    Outro…
  • Tuning - Drop C
    
    
    Verse Intro
    |----------------------------------------------------|
    |----------------------------------------------------| 
    |----------------------------------------------------|
    |----------------------------------------------------|
    |-------1------0-----------------1------0-000-000-000|
    |00000001-000000-00000000000000001-000000-000-000-000|…
  • drop B tuning (B F# B E G# C#)
    distortion for all
    
    Intro/prechorus(hold the chords)
    -------------
    -------------
    -------------
    -4-8-7--2-5-4
    -4-8-7--2-5-4
    -4-8-7--2-5-4
    
    Verse(hold chords)
    -------------
    -------------
    -------------
    -4-8-7---4--1
    -4-8-7---4--1
    -4-8-7---4--1
    
    Chorus…
  • intro
    ----------------------
    ----------------------
    ----------------------
    -0-0-0-0-3--0-0-0-0-1-
    
    -------------------
    -------------------
    -------------------
    -0-0-0-1-3---------
    
    -------------------
    -------------------
    -------------------
    -3-3--1-0----------
    
    -------------------
    -------------------
    -------------------
    -0-0-1-3-4---------
    
    -------------------
    -------------------
    -------------------
    -4--1--------------
    
    -------------------
    -------------------
    -------------------
    -0---0-------------
    
    -------------------
    -------------------
    -------------------
    -0--3--6--0--3-6---
    
    outro
    -------------------
    -------------------
    -------------------
    -0-3-6-5-3-5-------…
  • D|-------------------------------------------------------------
    A|-------------------------------------------------------------
    F|-------------------------------------------------------------
    C|-------------------------------------------3---------------4-
    G|-----------3h5-----------3h6-----------3h5-------------3h5---…
  • Both Guitars are in dop C:
    C G C F A D
    
    
    RIFF 1
    
    |---------------------------|
    |---------------------------|
    |---------------------------|
    |-0--7-6--3--3-6-1----------|
    |-0--7-6--3--3-6-1----------|
    |-0--7-6--3--3-6-1----------|
    
    RIFF…
Наверх