Аккорды Hellbillies - Ei Krasafaren Steinbu

Добавлено: @romashka
Дата добавления: 20 Февраля 2024г.
Рейтинг:
0.0
Просмотров: 58
[Intro]

[Riff] (x2)     (Em - D - A)

[Verse 1]

                Em                     D
                Eg skull'te fjells for å jakte rein ,
                C          G             D               Em   [Nedgang]
                bussen va' ganske sein ,  eg skulle gå te Hein.
                Em                  D
                Været va ruskut og tungt og grått ,
                C           G               D              Em
                lendet va sleipt og vått , sjøl vart eg redd so smått.
                D
                Hadde verken kart ell kompass ,
                Em                         D                 A        [Nedgang]
                burde jaggi hugsa sopass , jævlig dumt syns vel du

[Verse 2]

                Em                  D
                Måse og stein det va' alt eg så ,
                C          G           D                Em
                Skodda kom sigande ,  tjukk ,  so tung og grå .
                Em                      D
                Jeger'n va' liten ,  og vidda stor ,
                C         G              D               Em
                Hadde'kje lenger ord ,  trengde ein storebror .
                D                          Em*             D
                Eg tok te' miste true på at eg skull' finne bue .
                                 A     [Nedgang]          Em
                Klukka gikk ,  huttetu          va snart sju.

[Refrain]

                G                    C                 G
                Men då kom eg te' ei krasafaren steinbu ,
                C           G           Em        D
                Eine veggen siggji ut ,  men taket noko lein ,

                Sette meg og fann fram nista,
                Em*                             D             A     Riff*     Em - D- A
                Våt og kald så kroppen rista . Likevæl va' eg glad

[Verse 3]

                Em                      D
                Ofto er livet som ein skoddoheim ,
                C          G              D                Em
                vegen er langt frå bein ,  eg kan'kji finne Hein .
                Em                     D
                Rota på rundt i eit narrespel ,
                C        G              D              Em
                Kjempa imot eit bel ,  lyg meg ifrå eindel .
                D
                Når det æ som aller svartast ,
                Em
                Når det blæs med krappe vindkast
                D              A       [Nedgang]       Em
                Når eg går mot eit stup         ni eit djup     Ref X 2 +(Likevæl e eg glad) X 3


Riffet foregår som følger
e|---------------------------------|
B|---------------------------------|
G|---------------------------------|
D|------------0.----2--0--2--------|
A|----0h2--------------------------|
E|---------------------------------|

Dette spilles 2 ganger så kommer en liten endring
e|---------------------------------------|
B|---------------------------------------|
G|---------------------------------------|
D|-------------0.---2-0-2-0--------------|
A|----0h2---------------------2p0--------|
E|---------------------------------3b4-0-|


Etter denne kommer en liten flagettsak i 12 bånd:
e|-------------------------12f---------------------------------------------------|
B|-------------------------12f---------------------------------------------------|
G|---------12f-------------------------------------------------------------------|
D|-------------------------------------------------------------------------------|
A|-------------------------------------------------------------------------------|
E|-------------------------------------------------------------------------------|

Nedgangene foregår som følger
e|-----------------------------------|
B|-----------------------------------|
G|-----------------------------------|
D|---2---0---------------------------|
A|------------2--0-------------------|
E|--------------------3b4--0---------|

************************************

| h  Hammer-on
| p  Pull-off
| b  Bend

************************************  
Но если и музыка нас оставит, что будет тогда с нашим миром? (Гоголь)
Мы стремимся к созданию контента, соответствующего всем нормам законодательства и уважающего интеллектуальную собственность. Мы также придаем большое значение тому, чтобы не задеть никого и не оскорбить чьи-либо чувства. Если у вас есть вопросы или претензии по размещенному материалу, пожалуйста, сообщите нам об этом.
Шрифт
-
0
+
Прокрутка
-
0
+
Стоп
Наверх