Аккорды «Helloween»

Helloween
Helloween (от англ. hell — «ад» и Halloween) — легендарная немецкая метал-группа. Считаются одними из основоположников жанра "пауэр-метал". Впервые под этим названием (Helloween) музыканты выступили в 1984 году. Единственные участники, оставшиеся в группе с того момента и до нынешнего времени, — Михаэль Вайкат и Маркус Гросскопф. С 1989 года состав несколько раз менялся. В связи со сменой вокалистов в истории группы обычно выделяют «эпоху Хансена» (1984—1986), «эпоху Киске» (1987—1993) и «эпоху… Читать полностью... Helloween (от англ. hell — «ад» и Halloween) — легендарная немецкая метал-группа. Считаются одними из основоположников жанра "пауэр-метал". Впервые под этим названием (Helloween) музыканты выступили в 1984 году. Единственные участники, оставшиеся в группе с того момента и до нынешнего времени, — Михаэль Вайкат и Маркус Гросскопф. С 1989 года состав несколько раз менялся. В связи со сменой вокалистов в истории группы обычно выделяют «эпоху Хансена» (1984—1986), «эпоху Киске» (1987—1993) и «эпоху Дериса» (с 1994 по настоящее время). Сформированный в 1984 году в городе Гамбург, Германия на пепелище местных групп Powerfool и Ironfist, первоначальный состав группы включал в себя Кая Хансена (гитара, вокал), Майкла Вейката (гитара), Маркуса Гросскопфа (бас) и Инго Швихтенберга (ударные). После издания двух треков, включенных в сборник "Death Metal", выпущенный фирмой "Noise Records" в 1984-м, на этом же лейбле в 1985 году вышел дебютный мини-альбом Helloween. Группа получила признание с их уникальной маркой спид-пауэр-метала. Вскоре последовал первый лонгплей Walls of Jericho, а за ним EP Judas. После выхода этих альбомов Helloween решили добавить в состав фронтмэна-вокалиста, а именно Михаэля Киске, харизматичного 18-летнего парня, уведенного из Ill Prophecy. Keeper Of The Seven Keys Part I, выпущенный в 1987 году, показал группу в новом плане, использующую намного больше мелодичный подход, и Киске оказался достойным дополнением. Успех альбома был огромен, и немецких металлистов признали даже в Штатах. После этого Helloween довольно долго гастролировали по Европе, в процессе собирая материал для нового альбома. В 1988 году был выпущен Keeper Of The Seven Keys Part II . Его выходу сопутствовало успешное выступление на фестивале "Монстры рока" в Донингтоне. Позже был выпущен EP Dr. Stein, однако, вне сцены всё было не так уж хорошо. У Helloween появились проблемы с их компанией грамзаписи, и музыканты начали вести переговоры с несколькими известными лейблами, которые ранее проявляли интерес к команде. Чтобы заполнить пробел, группа выпустила "живой" альбом, записанный в Хаммерсмите в 1989 году. Тогда же из банды (не без внутренних интриг) ушел Кай Хансен, чтобы замутить свой собственный проект Gamma Ray. Его сменил Роланд Грапов, появившийся в команде во время тура в поддержку Keeper Of The Seven Keys Part II. Длительное юридическое сражение со своей компанией грамзаписи привело к тому, что только в 1990 году команда смогла заняться своим любимым делом. Новый контракт был заключен с EMI Records. Дебютный альбом группы на их новом лейбле, Pink Bubbles Go Ape, выпущенный в 1991-м, явился лишь тенью прежних Helloween. Было очень заметно отсутствие Кая Хансена и его манеры исполнения , и главное - сочинения песен. Еще более странным, чем Pink Bubbles Go Ape, был экспериментальный альбом 1993-го года Chameleon, состоявший по большому счету из заигрываний музыкантов с поп-роком, кантри, блюзом и прочим. Этот альбом многими ортодоксальными фэнами группы до сих пор воспринимается, как худший в дискографии группы. Вскоре после этого получил отставку Киске, а вслед за ним и Инго Швихтенберг, имевший проблемы со здоровьем и конфликтовавший с Вейкатом, кто был теперь главной руководящей силой группы. Им на замену были взяты Энди Дерис (вокал, экс-Pink Cream 69) и Ули Куш (ударные, экс-Gamma Ray), которые пришлись очень даже к месту при записи диска Master of the Rings. Этот альбом стал наиболее успешным в дискографии Helloween в течение нескольких лет, и даже возглавлял чарты в Японии некоторое время. В 1996-м вышел The Time of the Oath, на котором заметен вклад Вейката, Дериса и Куша. Тем временем Киске выпустил свой первый сольник, Instant Clarity, а на следующий год его примеру последовали Роланд Грапов с The Four Seasons of Life и Энди Дерис с Come in From the Rain. В 1999 году Helloween выпустили сборник каверов под названием Metal Jukebox, а свежим релизом порадовали фанов только в конце 2000-го. Турне в поддержку The Dark Ride прошло с успехом, однако сей факт не помешал Кушу и Грапову покинуть команду. Ули сменил бывший драммер Metalium Марк Кросс, но он продержался недолго и уступил место Стефану Шварцманну. Заменой Грапову стал Саша Герстнер из Freedom Call. Обновленная конфигурация в 2003 году записала довольно удачный альбом Rabbit Don't Come Easy. Его звучание сильно отличалось от первой половины дисков группы: это было нечто среднее между старым добрым рок-н-роллом, тяжёлым роком и блюзовыми мелодиями – получилось довольно интересно. В начале 2005 года из группы ушёл Шварцман, а уже в марте у группы был новый барабанщик. Им стал швейцарец Даниэль Лёбле. В музыке Helloween стало заметно влияние классических произведений, некоторые обозреватели называют стиль группы «вагнеровским металом». А творческий потенциал группы на данный момент дает все основания для самых оптимистических прогнозов. И эти прогнозы сбылись. 31 октября 2005 года (День, когда отмечают Хэллоуин) группа представила публике свой новый альбом – Keeper of the Seven Keys: The Legacy. В 2007 году вышел новый экспериментальный альбом под названием Gambling With the Devil. В конце 2009 года в честь своего 25-тилетия группа выпускает сборник своих старых вещей, но с новыми аранжировками под названием Unarmed. Это действительно экспериментальный альбом. В нем Helloween задействовали оркестр в 70 человек, детский хор, трубы. Металла на альбоме почти не осталось, но, тем не менее, альбом получился довольно интересным. Новый альбом, который получил название 7 Sinners, вышел 31 октября 2010 года. 12 сентября в сеть были выложены 30 секундные семплы с альбома. 22 сентября вышел сингл "Are you metal?"[2]. На конец 2012 года группа запланировала выпуск нового студийного альбома. Релиз следующего лонгплея группы - Straight Out Of Hell - состоялся 21 января 2013 года. Альбомы: 1985 - Helloween 1985 - Walls of Jericho 1987 - Keeper of the Seven Keys Part I 1988 - Keeper of the Seven Keys Part II 1991 - Pink Bubbles Go Ape 1993 - Chameleon 1994 - Master of the Rings 1996 - The Time of the Oath 1998 - Better Than Raw 1999 - Metal Jukebox 2000 - The Dark Ride 2003 - Rabbit Don't Come Easy 2005 - Keeper of the Seven Keys: The Legacy 2007 - Gambling With the Devil 2009 - Unarmed 2010 - 7 Sinners 2013 - Straight Out Of Hell Текущий состав Helloween: Michael Weikath Markus Großkopf Andi Deris Sascha Gerstner Daniel Loeble Скрыть...
Популярные аккорды Helloween:
алфавиту | просмотрам | случайно
  • Intro:
    
    sol				|  				    |
    re  5h2222                     2| 5h2222			    |
    la         5h2222  32 32 32 5   |	 5h2222 32 32 32          2 |
    mi				|			 32 0 0 0   |
    
    Repete Intro
    Once it killed his monster, when.......
    
    Brige:
    
    Sol…
  • legend:  ^  : bend
    	r  : release
     	h: hammer on	
    	p: pull off
    
    
    
    1ST VERSE              	                                                         
      Am               Em               Am              Fm                
    E-0---0---0---0--|-0---0---0---0--|-0---0---0---0--|-1---1---1---1--|
    B-1---1---1---1--|-0---0---0---0--|-1---1---1---1--|-1---1---1---1--|
    G----------------|----------------|----------------|----------------|
    D---2---2---2---2|---2---2---2---2|---2---2---2---2|---3---3---3---3|
    A----------------|----------------|----------------|----------------|
    E----------------|----------------|----------------|----------------|…
  • Tune half down (so E becomes D#).
    
        "2h3" <--- Hammer on. 
        "1p0" <--- Pull off.
    
    Riff 1:                          (0:00)
    d#:                  
    A#: 2h3      3      0h1      1            1
    F#:…
  • Tune Down Your E sting One Half Step
    
    ------------------------------------------------------------------------------
    -------10-12b13-12h13p12p10-12-----8---8b10r8-6-8-5--------8b10r8---8---------
    -9-9-9-------------------------9--x--9---------------7-5----------7---7/9---9-
    ---------------------------------x-----------------------7--------------------
    ------------------------------------------------------------------------------
    ------------------------------------------------------------------------------…
  • Tuning:EADGBe (standard)
       
      There's a little trill bit just before the solo starts.
    It rapidly hammers on/pulls off between the 12th and 13th frets on the B string.
    
    e|---------------15^^^^-15^^^^-------15^^^^15~~~~15^^^^15-13h15h13-12trill13-
    B|15^^^^-15^^^^13------------------------------------------------------------
    G|---------------------------------------------------------------------------
    D|---------------------------------------------------------------------------
    A|---------------------------------------------------------------------------
    E|---------------------------------------------------------------------------
    
    e|---------------------------------------------------------------------------
    B|-----------------------------------------------------------12h13p12h13p12--
    G|---------------------------------------------------------------------------
    D|-/15-14-12----15-14-12--15-14/17-15-14----17-15-14--17-15------------------
    A|---------------------------------------------------------------------------
    E|---------------------------------------------------------------------------
    
    e|---------------------------------------------------------------------------
    B|---------------------------------------------------------------------------
    G|-12h14p12---10h12p10---9h10p9---7h9p7--------------------------------------
    D|-----------------------------------------/7~~~~~---------------------------
    A|---------------------------------------------------------------------------
    E|---------------------------------------------------------------------------
    
    e|--------------------------20------20----------------19-19-19--20--22--20---
    B|----------------------20^^^^^-20^^^^-20^^^^--------------------------------
    G|--19^^^^^19^^^^17----------------------------------------------------------
    D|---------------------------------------------------------------------------
    A|---------------------------------------------------------------------------
    E|---------------------------------------------------------------------------…
  • acoustic intro
    -------------0-----------------0------------------1------------------------
    -----------1---1-----------------1--------------1----1---------------------
    ---------2-------2----------2------2----------2-------2--------------------
    -------2-----------2------2----------2------------------2------------------
    -3-2-0------------------0-----------------0--------------------------0-2-3-
    ----------------------3-----------------2------------------0-1-2-3-4-------
    
    
    ---------0---------------0-----------------0-------------------------
    -------1---1-----------1---1-------------1---1-----------------------
    -----2-------2-------2-------2---------2-------2---------------------
    ---2-----------2---2-----------2-----------------2-------------------
    -0---------------3------------------0-------------------------0-2-3--
    ----------------------------------2-----------------0-1-2-3-4--------
    
    Make…
  • Key
    br     - bend then release
    fb     - full bend
    x^y    - trill
    /or   - slide
    h or p - hammer-on or pull-off
    
    Fast Tempo
    Verse (triplets) (copied 1 octave above by 2nd guitar)
      A5
    |----------------------------|----------------------------|
    |----------------------------|----------------------------|
    |----------------------------|----------------------------|
    |----------------------------|----------------------------|
    |-0-0-0--2-0-0--3-0-0--2-0-0-|-0-0-0--2-0-0--3-0-0--2-0-0-|
    |----------------------------|----------------------------|…
  • Verse 1: (acoustic guitar)
    
     D                        A
    Now there is this day, a lot of things are changing
     F                        G
    Can´t just kick it away, got to get things right
         F…
  • Intro and verse:
    e------------------------------------------------------------------
    B-3p1-----1p0---------------------3p1-----1p0----------------------
    G-----------------4p2-----2-----------------------4p2-----2--------
    D-----2-------2-------2-------2-------2-------2-------2-------2----
    A-------0-------0-------0-------0-------0-------0-------0-------3--
    E------------------------------------------------------------------
    
    e--------------------------------------------------
    B-1p0------------------------0-----------1p0-----0-
    G---------0------2-------0h2-----2-----------2-0-0-
    D-----2------0-------0---------------2-----------2-
    A-------3------2-------2---------0-----0---------2-
    E------------------------------------------------0-
    
    Pre-chorus:
    F#m,…
  • I'm sure this is right, the only thing is the verse!:)
    
    --------------------------------------------------------------------------|---
    --------------------------------------------------------------------------|---
    --------------------------------------------------------------------------|---
    --------------------------------------------------------------------------|---
    -7777777--3333333--12-12-12-12-12-12-12--3333--5555--777777777777---------|---
    -5555555--1111111--10-10-10-10-10-10-10--1111--3333--555555555555---------|---…
  • Key
    ~ - vibrato
    
      Tempo : fast (one crotchet = 180).
    
    Riff A
    |e|-------------------------------|-------------------------------|
    |B|-------------------------------|-------------------------------|
    |G|-------------------------------|-------------------------------|
    |D|-9--------------------------7--|-9-----------------------------|
    |A|-7--------------------------5--|-7-----------------------------|
    |E|----0-0--0--0-0--0--0-0--0-----|----0-0--0--0-0--0--0-0--0--0--|…
  • Standard Tuning
    
    Intro (after slow piano bit): Am  F  G  F (x2)
    
    
    Am            F               G          F
    I need your guarding hand to guide me through the sand of time
    Am       F               G            F…
  • Куплет надо играть перебором примерно так:
    (струна)
    Am 5-3-2-3-1-3-2-3
    G  6-3-2-3-1-3-2-3
    
    Time (05:41)
    Am      G 
    Feel it running off
    Am                G 
    So strong and clear
    Am        G
    An age is over fast
        Am…
  • ------------------------------------------------------------------------------
    ------------------------------------------------------------------------------
    ------------------------------------------------------------------------------
    -6---6-4-2--------6---6-4--4-6-6-6--------------------------------------------
    -4-6-4-2-2-4-4-4--4-6-4-2--2-4-4-4--------------------------------------------
    ---4-------2-2-2----4---------------------------------------------------------…
  • Intro
    
    G--------|--7--|--9--|-------|--7--|--9--|-------------------------------------
    D-----4--|--7--|--9--|-----4-|--7--|--9--|-------------------------------------
    A-----4--|--5--|--7--|-----4-|--5--|--7--|-------------------------------------
    E-----2--|-----|-----|--0--2-|-----|-----|-------------------------------------…
  • INTRO: 
    guitar 1:
    E|--------------------------------------------------------------------------------|
    B|--------------------------------------------------------------------------------|
    G|----------------------------------5-4--------------------------5-4---5-4--------|
    D|---9-9-9-9-5-5-5-7-7--9-9-9-9-5-5-----5-5-7--9-9-9-9-5-5-5-7-7-----5-----5-7----|
    A|--------------------------------------------------------------------------------|
    E|--------------------------------------------------------------------------------|
    
    E|--------------------------------------------------------------------------------|
    B|--------------------------------------------------------------------------------|
    G|----------------------------------5-4--------------------------5-4---5-4---7----|
    D|---9-9-9-9-5-5-5-7-7--9-9-9-9-5-5-----5-5-7--9-9-9-9-5-5-5-7-7-----5-----5------|
    A|--------------------------------------------------------------------------------|
    E|--------------------------------------------------------------------------------|
    
    guitar…
  • Parte A
    e----------------------	
    B----------------------
    G----------------------
    D----------------------
    A----------5---------5-
    D--0-0-0-0---0-0-0-0---
    
    Parte B			Parte C
    e-------------		e-------------------
    b-------------		b-------------------
    g-------------		g-------------------
    D-------------		D-------------------
    A----2-3---2--		A----2-3---2--------
    D--3-----3----		D--3-----3---3-1-0--
    
    
    e…
  • Part 1:
    
    e|-----------------------|-----------------------|
    B|3---5---6--10~------8/6|5~---------------------|
    G|-----------------------|-----------------------|
    D|-----------------------|-----------------------|
    A|-----------------------|-----------------------|
    E|-----------------------|-----------------------|
    --------------------------------------------------
    
    Part…
  • Tune: Half-Step Down
    
    Intro
    
    Gb----------------------------------------------|---
    Db----------------------------------------3-2---|---
    Ab---0-0-0-0-0---0-0-0-0-0---0-0-0-0-0--------3-|---
    Eb-------------3-----------3-----------3--------|---…
  • E B 
    
    E---|----------------16-----|--19-----17h19p17p16------------17--|------
    B---|---/17------17---------|----------------------19------------|------
    G---|--------16-------------|------------------------------------|------
    D---|-----------------------|------------------------------------|------
    A---|-----------------------|------------------------------------|------
    E---|-----------------------|------------------------------------|------…
  • Intro (lead guitar):
    E---------------------|-------------------|
    B----------------8~~--|-------------------|
    G-10b(12)r(10)-7------|-8b(10)r(8)-7-7~~--|
    D---------------------|-------------------|
    A---------------------|-------------------|
    E---------------------|-------------------|…
  • Intro
     
     Part 1 2x
    E|----------------------|
    B|----------------------|
    G|----------------------|
    D|----------------------|
    A|-15\3-3-3-3-3-3-3-3-3-|
    e|----------------------|
    
    The second time, Guitar 2 comes in…
  • Moderate speed
    4/4 time
    
    Intro Riff A (slightly muted)
    |-----------------------------------||
    |-----------------------------------||
    |------------------------9--7-------||
    |---9-7-9----9-7-9---9-7------9-7-9-||
    |-7--------7-------7----------------||
    |-----------------------------------||
    
    Riff…
  • Fast Tempo (crotchet=160)
    4/4 Time Signature
    
    Intro A
                                                              **repeat 4x
    
    |---------------------------------|-----------------------------------|
    |---------------------------------|-----------------------------------|
    |---------------------------------|*---------------------------------*|
    |---------------------------------|*---------------------------------*|
    |-5-5-5-5-5-5-5-5-5-5-5-5-5-5-5-5-|-5-5-5-5-5-5-5-5-5-5-5-5-5-5-5-5---|
    |---------------------------------|-----------------------------------|
    |…
  • Here with distortion use delay effects to gain that sound..
    E||-----------------------------|-----------------------------|
    B||-----------------------------|-----------------------------|
    G||-----------------------------|-----------------------------|
    D||----5---5-------5---5--------|----5---5-------5---5--------|
    A||-----------------------------|-----------------------------|
    E||--3---3---3-3-3---3---3------|--3---3---3-3-3---3---3------|
    
    -----------------------------|-----------------------------|
    -----------------------------|-----------------------------|
    -----------------------------|-----------------------------|
    ----5---5-------5---5--------|----5---5-------5---5--------|
    -----------------------------|-----------------------------|
    --3---3---3-3-3---3---3------|--3---3---3-3-3---3---3------|
    
    -----------------------------|-----------------------------|
    -----------------------------|-----------------------------|
    -----------------------------|-----------------------------|
    ----5---5-------5---5--------|----5---5-------5---5--------|
    -----------------------------|-----------------------------|
    --3---3---3-3-3---3---3------|--3---3---3-3-3---3---3------|
    
    -----------------------------|-----------------------------|
    -----------------------------|-----------------------------|
    -----------------------------|-----------------------------|
    ----5---5-------5---5--------|----5---5-------5---5--------|
    -----------------------------|-----------------------------|
    --3---3---3-3-3---3---3------|--3---3---3-3-3---3---3------|
    
    -----------------------------|-----------------------------|
    -----------------------------|-----------------------------|
    -----------------------------|-----------------------------|
    ----5---5-------5---5--------|----5---5-------5---5--------|
    -----------------------------|-----------------------------|
    --3---3---3-3-3---3---3------|--3---3---3-3-3---3---3------|
    
    -----------------------------|-----------------------------|
    -----------------------------|-----------------------------|
    -----------------------------|-----------------------------|
    ----5---5-------5---5--------|----5---5-------5---5--------|
    -----------------------------|-----------------------------|
    --3---3---3-3-3---3---3------|--3---3---3-3-3---3---3------|
    
    -----------------------------|-----------------------------|
    -----------------------------|-----------------------------|
    -----------------------------|-----------------------------|
    ----5---5-------5---5--------|----5---5-------5---5--------|
    -----------------------------|-----------------------------|
    --3---3---3-3-3---3---3------|--3---3---3-3-3---3---3------|
    
    -----------------------------|-----------------------------|-------------------|
    -----------------------------|-----------------------------|-------------------|
    -----------------------------|-----------------------------|-------------------|
    ----5---5-------5---5--------|----5---5-------5---5--------|--5----------------|
    -----------------------------|-----------------------------|--5----------------|
    --3---3---3-3-3---3---3------|--3---3---3-3-3---3---3------|--3----------------|
    
    ------------------|------------------|------------------|
    ------------------|------------------|------------------|
    ------------------|------------------|------------------|
    ------------------|------------------|------------------|
    ------------------|------------------|------------------|
    ------------------|------------------|------------------|
    
    -----------------------------|-----------------------------|
    -----------------------------|-----------------------------|
    -----------------------------|-----------------------------|
    ----5---5-------5---5--------|----5---5-------5---5--------|
    -----------------------------|-----------------------------|
    --3---3---3-3-3---3---3------|--3---3---3-3-3---3---3------|
    
    -----------------------------|-----------------------------|
    -----------------------------|-----------------------------|
    -----------------------------|-----------------------------|
    ----5---5-------5---5--------|----5---5-------5---5--------|
    -----------------------------|-----------------------------|
    --3---3---3-3-3---3---3------|--3---3---3-3-3---3---3------|…
  • |---------|---------|-----------|------------------|
    |---------|---------|-----------|------------------|
    |---------|---------|-----0--4--|-5-5-5-5-5-5-5-5--|
    |---------|---------|-----------|------------------|
     (Uli)…
  • Fill 1: 
    
    E:--------7b----------------7b-----------------------------------------------------------------
    B:-------------6--7--------------6--7--------------3h5-3---------------------------------------
    G:--------------------------------------------------------0------------------------------------
    D:---------------------------------------------------------------------------------------------
    A:---------------------------------------------------------------------------------------------
    E:---------------------------------------------------------------------------------------------
    
    Fill…
  • No Bass
    G |-------------------|-------------------|-------------------|------------------|
    D |-------------------|-------------------|-------------------|------------------|
    A |-------------------|-------------------|-------------------|------------------|
    E…
  • Tuning: Eb (1/2 step down)
    
    Intro (play this 2x):
    e|----------------------------------------|
    B|----------------------------------------|
    G|--1-2--2s4------1-2--2s4-----2-1--------|
    D|----------------------------------2-----|
    A|-------------------------------------0--|
    E|------------0-------------0-------------|…
  • Строй гитары нормальный.
    
    |---------0---5---------|
    |-----7-----7-----|-------0-1-0-----|
    |---7---7---------|-----0-------0---|
    |-0---------------|---2-----------2-|
    ----0-|-3---------------|
    ------------|
    
    |-------2-3-2-----------|
    |-----3-------3---|-------1~--------|
    |---2-----------2-|-----0-----------|
    |-0---------------|---2-------------|
    ------|-3---------------|
    ------------|…
  • G -------------------------------------------------
    D -------------------------------------------------
    A -------------------------------------------------
    E -11---7----9---10-11-0----11-11-7---7-7-9----9-9-
    
    G -------------------------------------------
    D…
  • Guitar: 7 Strings
    Tuning: DAFCGDA
    Key:
     * Pinch Harmonic
     ~ Vibrato
     / Slide Up
     - Palm Mute
    
       Riff1                                                      Riff2
    D|---------------------------|               D|-------------------------|
    A|---------------------------|…
  • Intro (Sascha):                  5x
    E-----------------------------------|
    B-6/10-----108-----86-----65-5---|
    G-7/10-----109-----97-----------7-|
    D------0-0------0-0-----0-0---------|
    A-----------------------------------|
    E-----------------------------------|…
  • intro
    |-----------------|
    |-----------------|
    |---9---9---9---9-|
    |---9---9---9---9-|
    |-7-------7-------|
    |-----7-------7---|
     
     verse
    |---------------------------------------------------------------------------|
    |---------------------------------------------------------------------------|
    |---9---9---9---9---8---8---8---8---9---9---9---9---8---8---9-9-------------|
    |---9---9---9---9---9---9---9---9---9---9---9---9---9---9---9-9-------------|
    |-7-------7-------9-------9-------7-------7-------9-------7-----------------|
    |-----7-------7-------7-------7-------7-------7-------9---------------------|…
  • intro
    -----------------------------------------------------------|
    -----------------------------------------------------------|
    -2---------2---------2---------2---------2---------2-------|
    ----4-2-4-----4-2-4-----4-2-4-----4-2-4-----4-2-4----4-2-4-|
    -----------------------------------------------------------|
    -----------------------------------------------------------|
    
    ------------------------------------------------------------|
    --------------10---12---------------------------------------|
    -2------------9----11---------------------------------------|
    ----4-2-4-----7----9----------------------------------------|
    ------------------------------------------------------------|
    ------------------------------------------------------------|
    
    -------------------------------------------------------------|
    -------------------------------------------------------------|
    ----------------------------------12-------------------------|
    -7---9-------9-9----------9-------12-------------------------|
    -5-/-7-------7-7----------7-------10-------------------------|
    --------0-0-------0-0-0-0----0-0-----------------------------|
    
    --------------------------------------------------------------|
    --------------------------------------------------------------|
    --------------------------12-12-12----------------------------|
    -7---9--------9-9---------12-12-12----7-7-7-------------------|
    -5-/-7--------7-7---------10-10-10----5-5-5-------------------|
    ---------0-0-------0-0-0--------------------------------------|
    the…
  • Tuning: E A D G
    
    Intro
    |-------------------------|
    |-------------------------|
    |--0---0-0---0-0-0---0-0--|
    |-------------------------|
    
    |------5---7-7-----4-5--|------5---7-7-----4-5--|
    |--5-7---7-----5-7------|--5-7---7-----5-7------|
    |-----------------------|-----------------------|
    |-----------------------|-----------------------|
    
    |------5---7-7-----4-5--|------5---7-7-----4-5--|
    |--5-7---7-----5-7------|--5-7---7-----5-7------|
    |-----------------------|-----------------------|
    |-----------------------|-----------------------|
    
    Verse
    |-----------------------|----------4-5-7--|
    |-----------------------|----2-3-5--------|
    |--0-0-0-0-0-0-0-0-0-0--|--3--------------|
    |-----------------------|-----------------|
    
    |-----------------------|----------4-5-7--|
    |-----------------------|----2-3-5--------|
    |--0-0-0-0-0-0-0-0-0-0--|--3--------------|
    |-----------------------|-----------------|
    
    |-----------------------|----------4-5-7--|
    |-----------------------|----2-3-5--------|
    |--0-0-0-0-0-0-0-0-0-0--|--3--------------|
    |-----------------------|-----------------|
    
    |-----------------------|----------4-5-7--|
    |-----------------------|----2-3-5--------|
    |--0-0-0-0-0-0-0-0-0-0--|--3--------------|
    |-----------------------|-----------------|
    
    Bridge
    |-------------------------------------------------------------------|
    |-------------------------------------------------------------------|
    |---------------3-3--2-2--0-0---------------------------------------|
    |--1-1-1-1-1-1-----------------1-1--3-3-3-3-3-3--0-0-0-0-0-0--5--3--|
    
    |--------------------------------------------------------------------------5---5-4--|
    |----------------------------------------------------------------------------5------|
    |---------------3-3--2-2--0-0---------------------------------7-7-7-7-7-7-----------|
    |--1-1-1-1-1-1-----------------1-1--3-3-3-3-3-3--0-0-0-0-0-0------------------------|
    
    Intro…
  • Intro
                     8X
    G ------------ | ----------------- | --7 |
    D ------------ | -0-53-2-0-0------ | --- |
    A ----5--5--5- | -----------3-0-03 | 5-- | 5-5 ... and so on.
    E ---5--5--5-- | ----------------- | ---…
  • Tuning:Drop D
    
    e|---------------------------------------------------------------------------|
    B|---------------------------------------------------------------------------|
    G|---------------------------------------------------------------------------|
    D|---------------------------------------------------------------------------|
    A|0/8\3/12\0---0-----------2---------3----------5-----------8p7p5-7-5-3-5-2-3|
    E|0/8\3/12\0---0-000000000020000000003000000000050000000000-8p7p5-7-5-3-5-2-3|
    twice,…
  • standart tuning
    
    e[-----------------------------*-----------------]
    B[-----------------------------*-----------------]
    G[-14/16-18------6x--14/16-18--*-------6-------6-]
    D[---------------6x------------*-//-//-6-//-//-6-]
    A[---------------4x------------*-//-//-4-//-//-4-]
    E[-----------------------------*-//-//---//-//---]…
  • Tune down 1/2 step.
    
    
    PM = Palm Mute
    ~ = Vibrato
    h = Hammer on
    p = Pull off
     = Slide down
    / = Slide up
    b = Bend
    rb = Release Bend
    
    
    
      Intro
    e|-------------------------------------|------------------------------------------
    B|-------------------------------------|------------------------------------------
    G|-------------------------------------|------------------------------------------
    D|---9--7--9--12--7--9--7--5-----5-----|---9--7--9--12--7--9--9--7-----7----------
    A|---7--5--7--10--5--7--5--3-----3-----|---7--5--7--10--5--7--7--5-----5----------
    E|-------------------------------------|------------------------------------------…
  • (the solo
                                                                    begins here)
    |----------------|----------------|-------------------|------------------5-|
    |----------------|----------------|-------------------|------------------7-|
    |-------------7--|-------------5--|-----9------5----7-|--------------------|
    |-------------7--|-------------5--|-----9------5----7-|--------------------|
    |-------------5--|-------------3--|-----7------3----5-|--------------------|
    |-000000000000---|-000000000000---|-0000---0000---00--|--------------------|
    
    Now…
  • Gtr I (Eb Ab Db Gb Bb Eb) - 'Untitled'
    Gtr II (Eb Ab Db Gb Bb Eb) - 'Untitled'
    Gtr III (Eb Ab Db Gb Bb Eb) - 'Untitled'
    
     Intro
      Moderately Q=140
            E5          G5   F#5    E5
     6/8
      Gtr I…
  • Am
    What can I do?
    		   Em
    Will I be getting through?
    		F		    E
    Now that I must try to leave it all behind
    Did you see what you have done to me?
    So hard to justify
    Slowly it's passing by
    
    Am
    Forever and one
    	Em
    I will miss…
  • Sitar intro:
    e--------------|----------------|-----------------------------------|
    B--------------|-3--------------|---------------------------------3-|
    G-7-6tr7~~~----|-2----------0-2-|-3--5-2tr3---2tr3---2tr3-0-7-6---2-|
    D-----------8--|-0--------------|-----------5------5------------8-0-|
    A--------------|-0--------------|---------------------------------0-|
    E--------------|----------------|-----------------------------------|
    
    e------------|-------------|----------||
    B-(3)--------|-------------|-3--------||
    G-(2)--------|-------------|-2--------||
    D-(0)--------|-------------|-0--------||
    A-(0)--------|-------------|-0--------||
    E------------|-3~~~~-------|----------||
    
    Drum…
  • Key:
    
    / = slide up
    
     = slide down
    
    b = bend (whole step)
    
    b^ = bend (1/2 step)
    
    b^^ = bend (1 1/2 steps)
    
    pb = pre-bend
    
    r = release-bend
    
    r^ = release-bend half-step
    
    h^ = hammer-on
    
    p^ = pull-off
    
    ~ = Vibrato
    
    * = Natural…
  • Intro.
    
    G----------------------------------------------|-------------------------------
    D----------------------------------------------|-------------------------------
    A----------------5-5-5-7-0-0-0-0---------------|---------5-5-5-7-0-0-0-0-------
    E----2--2--2--0------------------0-0---0-0-0-0-|-2-2-2-0-----------------0-0---…
  • NOTE:TUNE GUITAR DOWN TO Eb
    
    INTRO:  FIRST RIFF A  X 2
    GUITAR 1
    E|-------------------------------------------------------------------------------|
    B|-------------------------------------------------------------------------------|
    G|-------------------------------------------------------------------------------|
    D|-------------------------------------------------------------------------------|
    A|-------------------------------------------------------------------------------|
    E|0-0-0-0-0-0-0-0-0-0-0-0-0-0-0-0-0-0-0-0-0-0-0-0-0-0-0-0-0-0-0-0-0-0-0-0-0-0-0--|…
  • Intro.
    
    G--------------------------------12----------------------------------|---
    D----0-0-0-15-0-0-0-12-0-0-0-14-----15-14-15-14-12-14-12----12-------|---
    A--------------------------------------------------------15----15-14-|---
    E--------------------------------------------------------------------|---…
  • Intro: played with pan flute
     E--|----h----------------------------------
     B--|--14^15--15--14-------h----------------
     G--|----------------16--14^16-16---h-------
     D--|-----------------------------14^16-16--
     A--|---------------------------------------…
  • Dm
    I wasn't jealous before we met
                                         Gm
    Now every man I see is a potential threat
         Dm
    And I'm possessive, it isn't nice
                                                Gm
    You've heard…
  • G-----------------------------------------------|----------1---1----------6----
    D----2--1-----------------2---------------------|---2--4-----------4--------6--
    A----------2--4--------------4----2-2-2-2-2-2---|----------------------4-------
    E------------------4--5-------------------------|------------------------------…
  • Tune: E A D G
    
    Intro.
    
    G--------|-------------|------------------|-------------|----------|---
    D--------|-------------|------------------|-------------|----------|---
    A--------|------5-4----|--------5-4-------|------5-4----|--5-4-5/7-|---
    E----2---|--5-4------2-|--5-4-5-----5---2-|--5-4------2-|----------|---…
  • --------------|-----------|-------------|------|-------|---------------------- 
          --------------|-----------|-------------|------|-------|---------------------- 
          -------2------|------x2-x4|-------2-----|-7-6-4|-2-----|----------------------…
  • Intro (Gtr1) 
    
    E---|-----------------------|-------------------------------
    B---|-----------------------|-------------------------------
    G---|-----------------------|-------------------------------
    D---|--5--5--5--4--------2--|-------------------------------
    A---|--3--3--3--2--------0--|-------------------------------
    E---|-----------------------|-------------------------------
    
    
    E------------------------------|----------------------------
    B------------------------------|----------------------------
    G------------------------------|----------------------------
    D---------------------7--------|----------------------------
    A------5-----7--------5-----7--|----------------------------
    E------3-----5-----x-----x--5--|----------------------------
     …
  • Tuning: E A D G
    
    Intro
    |---------|--------|
    |---------|--------|
    |--7------|--------|
    |---------|--------|
    
    |-------|-------|-------|----------------|
    |-------|-------|-------|----------------|
    |--7----|--3----|--5----|--7--5--3--2/7--|
    |-------|-------|-------|----------------|
    
    |--------|--------|
    |--------|--------|
    |--7-7---|--------|
    |--------|--------|
    
    |----------------------------|----------------------------|
    |----------------------------|----------------------------|
    |------7--5---3--2h3p3-------|------7--5---3--2h3p2-------|
    |--0-0------0----------3--2--|--0-0------0----------3--2--|
    
    |----------------------------|----------------------------|
    |----------------------------|----------------------------|
    |------7--5---3--2h3p3-------|------7--5---3--2h3p2-------|
    |--0-0------0----------3--2--|--0-0------0----------3--2--|
    
    |----------------------------|----------------|
    |----------------------------|----------------|
    |------7--5---3--2h3p3-------|------7--5---3--|
    |--0-0------0----------3--2--|--0-0------0----|
    
    Verse
    |--------------------------------------------|
    |--------------------------------------------|
    |--------------------------------------------|
    |--0-----0--0--0--0--0--0-----0-----0-----0--|
    
    |--------------------------------------------|
    |--------------------------------------------|
    |--5-----5--5--5--5--5--5-----5-----5-----5--|
    |--------------------------------------------|
    
    |--------------------------------------------|
    |--------------------------------------------|
    |--------------------------------------------|
    |--3-----3--3--3--3--3--3-----3-----3-----3--|
    
    |--------------------------------------------|
    |--------------------------------------------|
    |--5-----5--5--5--5--5--5-----5-----5-----5--|
    |--------------------------------------------|
    
    |---------------------------------------4--4--5--|
    |---------------------4--4--5--5--7--7-----------|
    |---3--3--5--5--7--7-----------------------------|
    |------------------------------------------------|
    
    |---------------------------------------5--5--7--7--|
    |---------------------5--5--7--7--9--9--------------|
    |---5--5--7--7--9--9--------------------------------|
    |---------------------------------------------------|
    
    |--7--5-------------------|
    |-------7--5--4-----------|
    |----------------7--5--3--|
    |-------------------------|
    
    |--------------------------------------------|
    |--------------------------------------------|
    |--------------------------------------------|
    |--0-----0--0--0--0--0--0-----0-----0-----0--|
    
    |--------------------------------------------|
    |--------------------------------------------|
    |--5-----5--5--5--5--5--5-----5-----5-----5--|
    |--------------------------------------------|
    
    |--------------------------------------------|
    |--------------------------------------------|
    |--------------------------------------------|
    |--3-----3--3--3--3--3--3-----3-----3-----3--|
    
    |--------------------------------------------|
    |--------------------------------------------|
    |--5-----5--5--5--5--5--5-----5-----5-----5--|
    |--------------------------------------------|
    
    |---------------------------------------4--4--5--|
    |---------------------4--4--5--5--7--7-----------|
    |---3--3--5--5--7--7-----------------------------|
    |------------------------------------------------|
    
    |---------------------------------------5--5--7--7--|
    |---------------------5--5--7--7--9--9--------------|
    |---5--5--7--7--9--9--------------------------------|
    |---------------------------------------------------|
    
    |--7--5-------------------|
    |-------7--5--4-----------|
    |----------------7--5--3--|
    |-------------------------|
    
    
    Bridge
    |--------------2--4--------------------|
    |-----2--4--5--------5--4--2-----------|
    |--5--------------------------5--3--2--|
    |--------------------------------------|
    
    |--------------2--4--------------------|
    |-----2--4--5--------5--4--2-----------|
    |--5--------------------------5--3--2--|
    |--------------------------------------|
    
    |--------------2--4--------------------|
    |-----2--4--5--------5--4--2-----------|
    |--5--------------------------5--3--2--|
    |--------------------------------------|
    
    |--------------2--4----------------------|
    |-----2--4--5--------4-4--2-2------------|
    |--5---------------------------5-5--4-4--|
    |----------------------------------------|
    
    Chorus
    |-----------------------------------------------|
    |-----------------------------------------------|
    |-----------------------------------------------|
    |--0-----0--0--0--0--0--0--0--0--0--0--0--0--3--|
    
    |--------------------------------------------|
    |--------------------------------------------|
    |--3-----3--3--3--3--3--3--3--3--3--3--3--3--|
    |--------------------------------------------|
    
    |-----------------------------------------|
    |-----------------------------------------|
    |------5--5--5--5--5--5--5-----5---7---9--|
    |---5-------------------------------------|
    
    |----------------------------------|
    |----------------------------------|
    |----------------------------------|
    |--0--0--0--0--0--0--0--7---5---3--|
    
    |------------------------------------------|
    |------------------------------------------|
    |------------------------------------------|
    |--0---0--0--0--0--0--0--0--0--0--0--0--7--|
    
    |-----------------------------------------|
    |-----------------------------------------|
    |-----------------------------------------|
    |--5--5--5--5--5--5--5--5--5--5--5--5--5--|
    
    |---------|--------------------------------|
    |---------|--------------------------------|
    |---------|--------------------------------|
    |--8---7--|--0--0--0--0--0--0--0--0--0--0--|
    
    Verse
    |--------------------------------------------|
    |--------------------------------------------|
    |--------------------------------------------|
    |--0-----0--0--0--0--0--0-----0-----0-----0--|
    
    |--------------------------------------------|
    |--------------------------------------------|
    |--5-----5--5--5--5--5--5-----5-----5-----5--|
    |--------------------------------------------|
    
    |--------------------------------------------|
    |--------------------------------------------|
    |--------------------------------------------|
    |--3-----3--3--3--3--3--3-----3-----3-----3--|
    
    |--------------------------------------------|
    |--------------------------------------------|
    |--5-----5--5--5--5--5--5-----5-----5-----5--|
    |--------------------------------------------|
    
    |---------------------------------------4--4--5--|
    |---------------------4--4--5--5--7--7-----------|
    |---3--3--5--5--7--7-----------------------------|
    |------------------------------------------------|
    
    |---------------------------------------5--5--7--7--|
    |---------------------5--5--7--7--9--9--------------|
    |---5--5--7--7--9--9--------------------------------|
    |---------------------------------------------------|
    
    |--7--5-------------------|
    |-------7--5--4-----------|
    |----------------7--5--3--|
    |-------------------------|
    
    |--------------------------------------------|
    |--------------------------------------------|
    |--------------------------------------------|
    |--0-----0--0--0--0--0--0-----0-----0-----0--|
    
    |--------------------------------------------|
    |--------------------------------------------|
    |--5-----5--5--5--5--5--5-----5-----5-----5--|
    |--------------------------------------------|
    
    |--------------------------------------------|
    |--------------------------------------------|
    |--------------------------------------------|
    |--3-----3--3--3--3--3--3-----3-----3-----3--|
    
    |--------------------------------------------|
    |--------------------------------------------|
    |--5-----5--5--5--5--5--5-----5-----5-----5--|
    |--------------------------------------------|
    
    |---------------------------------------4--4--5--|
    |---------------------4--4--5--5--7--7-----------|
    |---3--3--5--5--7--7-----------------------------|
    |------------------------------------------------|
    
    |---------------------------------------5--5--7--7--|
    |---------------------5--5--7--7--9--9--------------|
    |---5--5--7--7--9--9--------------------------------|
    |---------------------------------------------------|
    
    |--7--5-------------------|
    |-------7--5--4-----------|
    |----------------7--5--3--|
    |-------------------------|
    
    Bridge
    |--------------2--4--------------------|
    |-----2--4--5--------5--4--2-----------|
    |--5--------------------------5--3--2--|
    |--------------------------------------|
    
    |--------------2--4--------------------|
    |-----2--4--5--------5--4--2-----------|
    |--5--------------------------5--3--2--|
    |--------------------------------------|
    
    |--------------2--4--------------------|
    |-----2--4--5--------5--4--2-----------|
    |--5--------------------------5--3--2--|
    |--------------------------------------|
    
    |--------------2--4----------------------|
    |-----2--4--5--------4-4--2-2------------|
    |--5---------------------------5-5--4-4--|
    |----------------------------------------|
    
    Chorus
    |-----------------------------------------------|
    |-----------------------------------------------|
    |-----------------------------------------------|
    |--0-----0--0--0--0--0--0--0--0--0--0--0--0--3--|
    
    |--------------------------------------------|
    |--------------------------------------------|
    |--3-----3--3--3--3--3--3--3--3--3--3--3--3--|
    |--------------------------------------------|
    
    |-----------------------------------------|
    |-----------------------------------------|
    |------5--5--5--5--5--5--5-----5---7---9--|
    |---5-------------------------------------|
    
    |----------------------------------|
    |----------------------------------|
    |----------------------------------|
    |--0--0--0--0--0--0--0--7---5---3--|
    
    |------------------------------------------|
    |------------------------------------------|
    |------------------------------------------|
    |--0---0--0--0--0--0--0--0--0--0--0--0--7--|
    
    |-----------------------------------------|
    |-----------------------------------------|
    |-----------------------------------------|
    |--5--5--5--5--5--5--5--5--5--5--5--5--5--|
    
    |---------|--------------------------------|
    |---------|--------------------------------|
    |---------|--------------------------------|
    |--8---7--|--0--0--0--0--0--0--0--0--0--0--|
    
    Solo
    |------------------------------------------------------------------------------------------------|
    |--------------------------5--5-5-5-5------------------------------------------------------------|
    |--5--5-5-5-5--7--7-7-7-7--------------3--3-3-3-3--5--5-5-5-5-------------------------5--3--2----|
    |--------------------------------------------------------------3--3-3-3-3--5--5-5-5-5----------5--|
    
    |--------------------------------------------------------------------------------------|
    |--------------------------5--5-5-5-5--------------------------------------------------|
    |--5--5-5-5-5--7--7-7-7-7--------------3--3-3-3-3--5--5-5-5-5--------------------------|
    |--------------------------------------------------------------3--3-3-3-3--5--5-5-5-5--|
    
    |----------------------------|
    |----------------------------|
    |--5--5-5-5-5-5-5-5-5--5--6--|
    |----------------------------|
    
    |-------------------------------|
    |-------------------------------|
    |--7--7-7-7-7-7---5--5-5-5-5-5--|
    |-------------------------------|
    
    |-------------------------------|
    |-------------------------------|
    |--7--7-7-7-7-7---5--5-5-5-5-5--|
    |-------------------------------|
    
    |-------------------------------|
    |-------------------------------|
    |--7--7-7-7-7-7---5--5-5-5-5-5--|
    |-------------------------------|
    
    |-------------------------------|
    |-------------------------------|
    |--7--7-7-7-7-7---5--5-5-5-5-5--|
    |-------------------------------|
    
    
    |--------------------------------------------|
    |--------------------------------------------|
    |--------------------------------------------|
    |--0-----0--0--0--0--0--0-----0-----0-----0--|
    
    |--------------------------------------------|
    |--------------------------------------------|
    |--5-----5--5--5--5--5--5-----5-----5-----5--|
    |--------------------------------------------|
    
    |--------------------------------------------|
    |--------------------------------------------|
    |--------------------------------------------|
    |--3-----3--3--3--3--3--3-----3-----3-----3--|
    
    |--------------------------------------------|
    |--------------------------------------------|
    |--5-----5--5--5--5--5--5-----5-----5-----5--|
    |--------------------------------------------|
    
    |---------------------------------------4--4--5--|
    |---------------------4--4--5--5--7--7-----------|
    |---3--3--5--5--7--7-----------------------------|
    |------------------------------------------------|
    
    |---------------------------------------5--5--7--7--|
    |---------------------5--5--7--7--9--9--------------|
    |---5--5--7--7--9--9--------------------------------|
    |---------------------------------------------------|
    
    |--7--5-------------------|
    |-------7--5--4-----------|
    |----------------7--5--3--|
    |-------------------------|
    
    |--------------------------------------------|
    |--------------------------------------------|
    |--------------------------------------------|
    |--0-----0--0--0--0--0--0-----0-----0-----0--|
    
    |--------------------------------------------|
    |--------------------------------------------|
    |--5-----5--5--5--5--5--5-----5-----5-----5--|
    |--------------------------------------------|
    
    |--------------------------------------------|
    |--------------------------------------------|
    |--------------------------------------------|
    |--3-----3--3--3--3--3--3-----3-----3-----3--|
    
    |--------------------------------------------|
    |--------------------------------------------|
    |--5-----5--5--5--5--5--5-----5-----5-----5--|
    |--------------------------------------------|
    
    |---------------------------------------4--4--5--|
    |---------------------4--4--5--5--7--7-----------|
    |---3--3--5--5--7--7-----------------------------|
    |------------------------------------------------|
    
    |---------------------------------------5--5--7--7--|
    |---------------------5--5--7--7--9--9--------------|
    |---5--5--7--7--9--9--------------------------------|
    |---------------------------------------------------|
    
    |--7--5-------------------|
    |-------7--5--4-----------|
    |----------------7--5--3--|
    |-------------------------|
    
    Bridge
    |--------------2--4--------------------|
    |-----2--4--5--------5--4--2-----------|
    |--5--------------------------5--3--2--|
    |--------------------------------------|
    
    |--------------2--4--------------------|
    |-----2--4--5--------5--4--2-----------|
    |--5--------------------------5--3--2--|
    |--------------------------------------|
    
    |--------------2--4--------------------|
    |-----2--4--5--------5--4--2-----------|
    |--5--------------------------5--3--2--|
    |--------------------------------------|
    
    |--------------2--4----------------------|
    |-----2--4--5--------4-4--2-2------------|
    |--5---------------------------5-5--4-4--|
    |----------------------------------------|
    
    Chorus
    |-----------------------------------------------|
    |-----------------------------------------------|
    |-----------------------------------------------|
    |--0-----0--0--0--0--0--0--0--0--0--0--0--0--3--|
    
    |--------------------------------------------|
    |--------------------------------------------|
    |--3-----3--3--3--3--3--3--3--3--3--3--3--3--|
    |--------------------------------------------|
    
    |-----------------------------------------|
    |-----------------------------------------|
    |------5--5--5--5--5--5--5-----5---7---9--|
    |---5-------------------------------------|
    
    |----------------------------------|
    |----------------------------------|
    |----------------------------------|
    |--0--0--0--0--0--0--0--7---5---3--|
    
    |------------------------------------------|
    |------------------------------------------|
    |------------------------------------------|
    |--0---0--0--0--0--0--0--0--0--0--0--0--7--|
    
    |-----------------------------------------|
    |-----------------------------------------|
    |-----------------------------------------|
    |--5--5--5--5--5--5--5--5--5--5--5--5--5--|
    
    |---------|
    |---------|
    |---------|
    |--8---7--|
    
    |-----------------------------------------------|
    |-----------------------------------------------|
    |-----------------------------------------------|
    |--0-----0--0--0--0--0--0--0--0--0--0--0--0--3--|
    
    |--------------------------------------------|
    |--------------------------------------------|
    |--3-----3--3--3--3--3--3--3--3--3--3--3--3--|
    |--------------------------------------------|
    
    |-----------------------------------------|
    |-----------------------------------------|
    |------5--5--5--5--5--5--5-----5---7---9--|
    |---5-------------------------------------|
    
    |----------------------------------|
    |----------------------------------|
    |----------------------------------|
    |--0--0--0--0--0--0--0--7---5---3--|
    
    |------------------------------------------|
    |------------------------------------------|
    |------------------------------------------|
    |--0---0--0--0--0--0--0--0--0--0--0--0--7--|
    
    |-----------------------------------------|
    |-----------------------------------------|
    |-----------------------------------------|
    |--5--5--5--5--5--5--5--5--5--5--5--5--5--|
    
    |---------|------------------------|
    |---------|------------------------|
    |---------|-------3---2---7--5--7--|
    |--8---7--|--0---------------------|…
  • Tune to Eb
    
    Riff A
    |----------------------------------------------------------|
    |----------------------------------------------------------|
    |----------------------------------------------------------|Gtr I
    |-----------5-4--------------------------------------------|
    |--2/7-2-3~-----4-4h5p4p0-3--------------------------------|
    |----------------------------------------------------------|
    
    
    Riff…
  • Intro
    |---------------------------------------------------------------------------|
    |---------------------------------------------------------------------------|
    |---------------------------------------------------------------------------|
    |-44444-----5---4----44444----5---4-------------5---4------------5---4h5p4--|
    |-22222---2---2---2--22222--2---2---2--55555--2---2---2--77777-2---2--------|
    |--------------------------------------33333-------------55555--------------|
    Play…
  • Intro:
    e ---------------------|------------------------|
    B------------7----9----|------------------------|
    G-6h8---8--------------|-6h8---8----8-9-6-8-----|
    D-6---6----6----6----6-|-----6----6-------------|
    A----------------------|------------------------|
    E----------------------|------------------------|
    
    e----------------------|------------------------|repeat…
  • H  P
    ---H--P--P------------------------------H--P--P----12-----11-12-11----11------
    -12-13-12-10-12-----(12)~~~-----------12-13-12-10------------------13------13-
    ------------------------------------------------------------------------------
    ------------------------------------------------------------------------------
    ------------------------------------------------------------------------------
    ------------------------------------------------------------------------------…
  • e     e e e e e e e e   e e e e e e e e  3x e e e e e e e e   e  e  e    
    
    G--------||------------------|------------------||-----------------|------------
    
    D---4:---||*-----------------|-----------------*||-----------------|------------
    
    A---4:-1-||*-3-3-3-3-3-3-3-3-|-3-3-3-3-3-3-3-3-*||-3-3-3-3-3-3-3-3/|-15-15-15---
    
    E--------||------------------|------------------||-----------------|------------…
Наверх