Аккорды «Hum»

Hum
"Hum" с английского переводится "жужжать", что, в общем, и очень хорошо передает тонкость звучания этого коллектива, следующего безусловно двум основополагающим музыкальным традициям начала 90-х - гранжу и шугейзу, развиваясь в фарватере таких известных у нас коллективов, как Dinosaur Jr, Smashing Pumpkins, Pearl Jam и др. Иными словами - перед нами то самое настоящее (тру-тру) американское инди конца 20 в. Собрались ребята в 1989 г. в городе Урбана (Urbana), штат Иллинойс. К концу 90 года после… Читать полностью... "Hum" с английского переводится "жужжать", что, в общем, и очень хорошо передает тонкость звучания этого коллектива, следующего безусловно двум основополагающим музыкальным традициям начала 90-х - гранжу и шугейзу, развиваясь в фарватере таких известных у нас коллективов, как Dinosaur Jr, Smashing Pumpkins, Pearl Jam и др. Иными словами - перед нами то самое настоящее (тру-тру) американское инди конца 20 в. Собрались ребята в 1989 г. в городе Урбана (Urbana), штат Иллинойс. К концу 90 года после небольших перестановок в составе (по разным причинам то приходили, то уходили музыканты) они записывают первую демку в подвале известного впоследствии Стива Альбини в Чикаго - Is Like Kissing an Angel (She Said), а в уже 1991 г. выходит их первый альбом Fillet Show на маленьком независимом лейбле. Альбом записан плохо, впрочем, заметно и то, что команда несыграна, треки балансируют между подростковым панком и хэвиметалом с топорными политическими и юмористическими лирическими зарисовками. В целом, дебют остается довольно-таки незаметным, хотя уже к этому времени у группы появляются верные фанаты из местных пацанов и музыкантов. Скрыть...
Популярные аккорды Hum:
алфавиту | просмотрам | случайно
  • Intro
    -----
    Guitar 1, clean
    
    E|------------------------------------------------------|
    B|------------------------------------------------------|
    G|-11-11--11-11--11-11--11-11---7-7--7-7--11-11--11-11--|
    D|-11-11--11-11--11-11--11-11---7-7--7-7--11-11--11-11--|
    A|--9--9---9--9---9--9---9--9---5-5--5-5---9--9---9--9--|
    D|--9--9---9--9-----------------5-5--5-5----------------|
    
    E|---------------------------------------------|
    B|---------------------------------------------|
    G|-11-11--11-11--11-11--11-11--7--5-4--4--7-7--|
    D|-11-11--11-11--11-11--11-11--7--5-4--4--7-7--|
    A|--9--9---9--9---9--9---9--9--5--3-2--2--5-5--|
    D|--9--9---9--9----------------5--3-2--2--5-5--|…
  • Intro:
    
    D|---------2--4---4-4-2-2---0---------2--4---4-4-2-2---0---------
    A|----2-0-------------------------2-0----------------------------
    d|-0----------------------------0--------------------------------
    
    
    D|---------2--4---4-4-2-2---0---------2--4---4-4-2-2---0---------
    A|----2-0-------------------------2-0----------------------------
    d|-0---------------------------0---------------------------------
    
    
    G|----------2-4-5-4-4-4-4-2-0----------2-4-5-4-4-4-4-2-0…
  • (intro)                                                            
     ---------------------------------------------------2----
     ---------------------------------------------------3----
     ---7--7--7--7--7--7--7--7--7--7--7--7--7--7--7--7--2----…
  • Intro (Harmonics)
    E----------------------|
    B----------------------|
    G----------------------|
    D----------------------|
    A--(9)--(9)--(9)--(9)--|
    D--*9*--*9*--*9*--*9*--|
    
    
    E-------------------|
    B-------------------|
    G---12-/11---7-9---|
    D-------------------|
    A---10-/-9---5-7---|
    D-------------------|
    
    
    Main…
  • Drop-D tuning
    
    The bridge is just B on the A-string, which you continue for about twenty to thirty seconds, then the breakdown (repeat it 4x):
    
    
    G|----------------------------------------------------------
    D|----------------------------------------------------------
    A|----------------------------------------------------------
    d|-9-9--9-9-7-7--7-7-5-5--5-5-5-5--5-5-0-0--7--0-0--0-0-5-7-
    
    
    G|----------------------------------------------------------
    D|----------------------------------------------------------
    A|-----------13-13-13-13-13-13-13-13------------------------
    d|----------------------------------------------------------…
  • verse chord progression:
                                                                         
     --4--4--4--4--4--2--2--2--2--2--9---9---9---9---9---4--4--4--4--4-
     --5--5--5--5--5--3--3--3--3--3--10--10--10--10--10--5--5--5--5--5-…
Наверх