Аккорды Hunter Hayes - Homesick

Добавлено: @romashka
Дата добавления: 18 Марта 2024г.
Рейтинг:
0.0
Просмотров: 42
Транспонировать - +
No Capo

Intro:

e:--2--5--0--------|-----------------|--2--5--0--------|-----------------|
B:-----------------|-----------------|-----------------|-----------------|
G:-----------2-----|--4-2-4-6--------|-----------2-----|--4-6-4-2--------|
D:-----------------|-----------------|-----------------|-----------------|
A:-----------------|-----------------|-----------------|-----------------|
E:-----------------|-----------------|-----------------|-----------------|

e:--2--5--0--------|-----------------|--2--5--7--------|--7-9-7-5--------|
B:-----------------|-----------------|-----------------|-----------------|
G:-----------2-----|--4-2-4-6--------|-----------------|-----------------|
D:-----------------|-----------------|-----------------|-----------------|
A:-----------------|-----------------|-----------------|-----------------|
E:-----------------|-----------------|-----------------|-----------------|

Verse:

  D             A            E         A
I wake up every morning in a house for two
         D                A             E     A
But it's hard to say good morning to an empty room
  D            A                 E                   A
I talk to your pictures like I'm talking straight to you
      D               A                 E       A
And I tell you that I love you and I'll be home soon

Chorus:

D                   A
This is what I come home to
E         A
Day after day
   D
An empty house
  A
A lonely feeling
      D              E
And a scary place to stay
       D             Dm
When I say I'm going home
     D     E  D   A
This can't be it
          A
'Cause if home is where the heart is
E        D E    A
Why am I,  home sick?

Verse:

       D              A               E       A
Well I search for the things that complete my life
         D              A       E          A
'Cause I know my better half is nowhere in sight
              A             E       D      A
You're just a call away any time I choose
       D           A      E       A
But it still won't put me holding you

Chorus:

D                   A
This is what I come home to
E         A
Day after day
   D
An empty house
  A
A lonely feeling
      D              E
And a scary place to stay
       D             Dm
When I say I'm going home
     D     E  D   A
This can't be it
          A
'Cause if home is where the heart is
E        D E    A
Why am I,  home sick?

Outro:

       D     A               E         A
When I go to sleep I'm right where I belong
          D        A           E       A
Because I dream of you and I'm finally home 
Наверх