Аккорды Ice Nine Kills - Stabbing In The Dark

Добавлено: @romashka
Дата добавления: 12 Октября 2022г.
Рейтинг:
0.0
Просмотров: 75
Транспонировать - +
[Intro]

Bm                Bm
   In calculated silence
                  Em
Captivated by the violence I replay
        G          F#
Fifteen years ago today
G      F#      Bm
Oh, an evil evolution
             A           Em
Will bring a feeble institution to its knees
   G                 F#
Oh doctor, can't you see?


[Chorus]
              Bm       Em
That when the hands of fate
            G        F#
Fall on the midnight hour
            Bm      Em
Behind this mask of hate
          G       F#
I don the devil's power


[Post-Chorus]

"These are the devil's eyes"
                        Bm              F#              Bm              F#
Eb|-------------------------------------------------------------------------------------|
Bb|-------------------------7---7-----------5---5-----------7---7-----------5---5-------|
Gb|-----------------------7---7---7---7---6---6---6---6---7---7---7---7---6---6---6---6-|
Db|---------------------9-----------9---8-----------8---9-----------9---8-----------8---|
Ab|-------------------------------------------------------------------------------------|
Eb|-------------------------------------------------------------------------------------|

     G                               F#
Eb|----------------------------------------------------------------------------|
Bb|--7p0-0-7p0-0-7p0-7---8~----------7p0-0-7p0-0-7p0-3---3-5-3-2---------------|
Gb|--------------------------------------------------------------4-3-4~--------|
Db|----------------------------------------------------------------------------|
Ab|----------------------------------------------------------------------------|
Eb|----------------------------------------------------------------------------|


[Verse 1]

         Bm
A former portrait of perfection
F#
Painted without plight
    Em
Now Haddonfield's my battlefield
     G                  F#
Your kids won't make it home tonight
       Bm
With a madness void of reason
  F#
I kill with every strike
               Em
I'll haunt you day after day
G      F#      G
Knife after knife
       F#            F# N.C.
Taking life after li-ife


[Chorus]

         Bm       Em
When the hands of fate
            G        F#
Fall on the midnight hour
            Bm      Em
Behind this mask of hate
          G       F#
I don the devil's power
           Bm          Em
If there's life in the shadows
        G               F#
Let the knife leave its mark
         G                              F#
When the certainty of safety feels like stabbing
F#
Stabbing in the dark
Наверх