Аккорды Иллет - Где ты мой милый дом (Далеко)

Добавлено: @romashka
Дата добавления: 26 Августа 2019г.
Рейтинг:
0.0
Просмотров: 18
Транспонировать - +
Основная тема:
2x
  Am                 D                 Dm                F       E 
1.-----0-----------|-----2-----------|-----1-----------|-----1-------3---|
2.-----1-----------|-----3-----------|-----3-----------|-----1-------3---|
3.---2---2---2---2-|---2---2---2---2-|---2---2---2---2-|---2---2---4---4-|
4.---------2---2---|---------0---0---|---------0---0---|-----------------|
5.-0---------------|-0---------------|-0---------------|-----------------|
6.-----------------|-----------------|-----------------|-1-------3-------|

4x (4й раз в конце немного отличается - см. аккорды)
   C                     G
1.---------0-------|---------3-------|---------1-------|---0-----0---|
2.---------1-------|---------0-------|---------3-------|---0-----1---|
3.-------0---0---0-|---0---0---0---0-|---0---2---2---1-|-------2---2-|
4.-------------2---|-0-----------0---|-0---------------|-2-----------|
5.-0-2-3-----------|-----------------|-----0-------2---|-----0-------|
6.-----------------|-----3-----------|-----------------|-------------|

Am                D              Dm
Где ты, мой милый дом, за зелёным холмом,
              F       G      Am
дом, которого нету на свете, о?
                  D             Dm
Там чисты небеса, пахнет мёдом роса,
            F            G      Am
F в высокой траве бродит ветер, о...

C         G       Dm   E     Am
Это пряха тоски у полуночной реки
C           G         Dm      E      Am
Заплела все пути - не пройти, не найти,
C          G         Dm    E    Am
А начало с концом да запутала узлом...
C                 G    Dm    E   Dm   E
Где ты, мой милый дом? Далеко... Далеко...

Am                D           Dm
А ткачиха тумана сплетает вуаль,
              F       G      Am
словно крылья прозрачные руки, о.
                  D             Dm
А на левом плече ее птица Печаль,
            F            G      Am
А на правом - то птица Разлуки, о.

C                 G       Dm   E     Am
Нить одна - белый свет, а другой названия нет,
C            G       Dm   E     Am
Третья нить на виду, по четвертой я иду.
C            G       Dm   E     Am
А она, как река, только нету челнока,
C                 G       Dm    E   Dm   E
Только плыть той рекой.  Далеко... Далеко...

Am                D           Dm
Кто разгонит туман, кто укажет тропу,
              F       G      Am
Кто затеплит свечу до рассвета, о.
                  D             Dm
Где ты, мой милый дом за зеленым холмом,
            F            G   Am
Дом, которого нету на свете, о.

C            G       Dm   E     Am
Высоко, высоко, по-над звездною рекой
C            G       Dm   E     Am
Кто-то бродит, свечу прикрывая рукой,
C            G       Dm   E     Am
Кто-то плачет в ночи средь прозрачных облаков...
C         G         F   E    
Не зови! Помолчи - мне ещё-о 
Dm    E   Dm    E
Далеко... Далеко...
comments powered by Disqus
Наверх