Аккорды «Impetigo»

Impetigo
"Impetigo" были основаны в июле 1987-го басистом и вокалистом Стево и гитаристом Марком. Вскоре в их компании появился ударник Дэн, и таким образом первый состав группы был укомплектован. В ноябре парни выпустили концертную демку, озаглавленную "All We Need Is Cheez". Там был записан настолько экстремальный хардкор, что интерес к нему проявили лишь самые отчаянные представители андеграунда. Следующие полтора года музыканты были заняты написанием нового материала и редкими клубными… Читать полностью... "Impetigo" были основаны в июле 1987-го басистом и вокалистом Стево и гитаристом Марком. Вскоре в их компании появился ударник Дэн, и таким образом первый состав группы был укомплектован. В ноябре парни выпустили концертную демку, озаглавленную "All We Need Is Cheez". Там был записан настолько экстремальный хардкор, что интерес к нему проявили лишь самые отчаянные представители андеграунда. Следующие полтора года музыканты были заняты написанием нового материала и редкими клубными выступлениями. Стараясь сделать саунд более тяжелым и брутальным, "Impetigo" решили добавить в состав второго гитариста. Долго его искать не пришлось, и на это дело подписали общежитского соседа Марка, Скотти. С его помощью было записано студийное демо "Giallo". Саунд на нем действительно потяжелел и представлял собой смесь дэта и грайндкора с легким налетом нойзкора. Теперь андеграунд проявил к банде большее внимание, и "Impetigo" даже поступило предложение от "Wild Rags Records" на выпуск одного альбома. После оформления бумаг парни отправились в студию "Creative Spaces", где к февралю 1990-го подготовили дебютную пластинку. Однако в продажу диск поступил лишь в ноябре, поскольку пришлось перепечатывать обложку, на первоначальном варианте которой были изображены сцены каннибализма, расчленения и прочие мерзости. "Ultimo Mondo Cannibale" был неплохо встречен в кругах андеграунда и относительно неплохо продавался для такого экстрима. Альбом даже засветился в чартах одной из радиостанций, попав там на 96-е место. Следующим релизом "Impetigo" стал раритетный ныне EP "Buio Omega", выпущенный лейблом "A Whisper In Darkness". На пластинку попали ремиксы с сессий "Giallo" и один новый трек "Harbinger Of Death". Следующий мини-альбом был записан напополам с немецкими друзьями музыкантов, группой "Blood". Благодаря этому релизу об "Impetigo" узнали и в Европе. Затем настало время для выпуска второго лонгплея, и группа вновь воспользовалась услугами "Wild Rags". "Horror Of The Zombies" был записан осенью 1991-го, а в продажу поступил летом 1992 года. Этот альбом, так называемая "поэма о каннибалах", стал, пожалуй, лучшей работой коллектива. Саунд на нем стал еще более тяжелым и мрачным и дэтовым. Чувствовалось влияние таких команд как "Carcass", "Autopsy", "Repulsion", "Master", но при этом "Impetigo" сохраняли уникальное звучание. За шесть лет своего существования группа нечасто появлялась на публике, отыграв за это время всего порядка тридцати концертов, и раз пять отметившись на различных фестивалях. В 1993 году после участия в "Milwaukee Metalfest VII" команда решила свернуть свою деятельность. В дальнейшем Стево какое-то время играл в дум-проекте "Insomnia". Спустя пять лет Марк вдруг обнаружил, что народ до сих пор интересуется творчеством "Impetigo". Он связался с "Wild Rags", чтобы переиздать ранние опусы группы на CD, но инициативу перехватил германский лейбл "Morbid Records", который и реализовал эту идею. В начале третьего тысячелетия статус "Impetigo" все еще оставался высоким и коллектив удостоился трибьютного альбома, в записи которого приняли участие "Blood Duster", "Vastion", "Mortician", "Exhumed", "Deceased", "Impaled" и другие экстремалы. В 2007 году произошел одноразовый реюнион классического состава, который выступил на "Central Illinois Metalfest". Скрыть...
Популярные аккорды Impetigo:
алфавиту | просмотрам | случайно
  • Tune to C standard
    
    Riff A (2x)
    
    e|-----------------------------------|
    B|-----------------------------------|
    G|-----------------------------------|
    D|-----------------------------------|
    A|2-2-2-2--7-6-7--2-2-2-2--7-6-------|
    E|0-0-0-0--5-4-5--0-0-0-0--5-4-------|
    
    e|-----------------------------------|
    B|-----------------------------------|
    G|-----------------------------------|
    D|-------------------------7-6-------|
    A|2-2-2-2--7-6-7--2-2-2-2--5-4-------|
    E|0-0-0-0--5-4-5--0-0-0-0------------|
    
    Riff…
  • Tuning  C#,F#,B,e,g#,c#
    
    Riff 1
    
    |--------------------------------------------|
    |--------------------------------------------|
    |--------------------------------------------|
    |--------2-3-2---------2-3-2-0--------2-3-2--|
    |-22-2-3------3-22-2-3---------22-2-3------3-|
    |-00------------00-------------00------------|…
  • Tune to D standard
    
    Riff A (4x)
    
    e|-----------------------------------|
    B|-----------------------------------|
    G|-----------------------------------|
    D|----5~-------3~--------------------|
    A|2~--3~---5~--1~--------------------|
    E|0~-------3~------------------------|
    
    Riff…
  • Tune to C standard
    
    Riff A (4x)
    
    e|---------------------------------------|
    B|---------------------------------------|
    G|---------------------------------------|
    D|------3------333-----------------------|
    A|------1------111-----------------------|
    E|000000-000000--------------------------|
    
    Riff…
  • Tuning: DbGbCbFb
    
    Use distortion.
    
    1:35
    
    Fb|----------------------------------------------------------------|.
    Cb|----------------------------------------------------------------|.
    Gb|----------------------------------------------------------------|.
    Db|1---------------------------------------------------------------|.…
  • Tuning: DbGbCbFb
    
    1:05
    
    Fb|----------------------------------------------------------------|
    Cb|----------------------------------------------------------------|
    Gb|----------------------------------------------------------------|
    Db|5-------5-----------5---5---5---4---4---4-----------4---4---4---|
    
    Fb|----------------------------------------------------------------|
    Cb|----------------------------------------------------------------|
    Gb|--------------------------------------------------------3---4---|
    Db|5-------5-----------5---5---5---4---4---4-------3---4-----------|
    
    Fb|----------------------------------------------------------------|
    Cb|----------------------------------------------------------------|
    Gb|----------------------------------------------------------------|
    Db|5-------5-----------5---5---5---4---4---4-----------4---4---4---|
    
    Fb|----------------------------------------------------------------|
    Cb|----------------------------------------------------------------|
    Gb|--------------------------------------------------------3---4---|
    Db|5---5---5-----------5---5---5---4---4---4-------3---4-----------|
    
    Fb|----------------------------------------------------------------|.
    Cb|----------------------------------------------------------------|.
    Gb|----------------------------------------------------------------|.
    Db|5-------5-----------5---5---5---4---4---4-----------4---4---4---|.…
  • Tune to C standard
    
    Bass Intro
    
    D#|-----------------------------------------|
    A#|-----------------------------------------|
    F||77--77--77--3-5--77--77---77---3-5-------|
    C||--00--00--00-------00---00---00----------|
    
    D#|----------555555-33----------------------|
    A#|-------------------5---------------------|
    F||3333333333-------------------------------|
    C||-----------------------------------------|
    
    D#|------------9-7--------------------------|
    A#|---------------9-8-7---------------------|
    F||3333333333-7--------9-8------------------|
    C||-----------------------------------------|
    
    Guitar…
  • Tune to C standard
    
    Riff A (8x)
    
    e|-----------------------------------|
    B|-----------------------------------|
    G|-----------------------------------|
    D|-----------------------------------|
    A|5"-6"-3"-6"------------------------|
    E|3"-4"-1"-4"------------------------|
    
    Riff…
Наверх