Аккорды «J Church»

J Church
J Church - американская панк-рок-группа, образованная гитаристом и вокалистом Лэнсом Ханом и бас-гитаристом Гарднером Максамом в 1992 г. в Сан-Франциско, Калифорния, после распада их предыдущей группы, Cringer. Группа прошла через многочисленные изменения в составе и выпустила ряд пластинок и компакт-дисков до смерти Хана в 2007 г. J Church - американская панк-рок-группа, образованная гитаристом и вокалистом Лэнсом Ханом и бас-гитаристом Гарднером Максамом в 1992 г. в Сан-Франциско, Калифорния, после распада их предыдущей группы, Cringer. Группа прошла через многочисленные изменения в составе и выпустила ряд пластинок и компакт-дисков до смерти Хана в 2007 г. Скрыть...
Популярные аккорды J Church:
алфавиту | просмотрам | случайно
  • G:--------------------------------------|-------------------|--------------------|
    D:-5-554-442-22-------------------------|-------------------|--------------------|
    A:--------------5-55-3-332-22-1111------|----3333------5555-|--------------------|
    E:---------------------------------5555-|-3333------5555----|-5--56--5--56--68-89|…
  • G:------------------:--|
    D:------------------:--|
    A:-3333-5555--------:-3|
    E:-----------333-3-3:--|
    
  • G:---------------------:--------------------:--------------------------|
    D:-----------5555-3333-:------3-5-----------:--------------------------|
    A:-3333-3333-----------:-3333---------------:-----------------3--------|
    E:----------(33331111)-:----------3333-1111-:-1111-0000--5555---3333---|…
  • G:---------------:------------:------------------------:--:
    D:---------------:------------:------------------------:--:
    A:---------------:------------:------------------------:--:
    E:-3330-0000-0000:-77-55-33-55:-00000-33333-55555-77777:-0:…
  • G:-------------------:---------------------------------------------|
    D:-------------------:---------------------------------------------|
    A:-------------------:---------------------33333333333-00000000000-|
    E:-3-3--3-3----------:-3333-3333-3333-3333-------------------------|
    
    G:--------------------------------------------------|
    D:--------------------------------------------------|
    A:-5555555555555555-------1-1111111-00000-3-3333333-|
    E:------------------33333---------------------------|…
  • G:----------------------:------------:
    D:----------------------:------------:
    A:-----------00000-33333:----00-33333:
    E:-333333333------------:-33---------:
  • G:--------------------------:--------------------------------:
    D:--------------------------:---------7-77-77---------5-55-55:
    A:-55555-222-----------55555:-55555-7------------------------:
    E:-----------555-33333------:----------------33333-5---------:…
  • G:--------------------------------------------------------------------:
    D:--------------------------------------------------------------------:
    A:-----------------------------------3333333333333333-5555555555555555:
    E:-3333333333333333-3333333333333333----------------------------------:
    
    G:----------------:-----------------------------------------------…
  • G:----------------------------------------:------------------------:
    D:----------------------------------------:------------------------:
    A:-----------7777-7777-9999-9999-5555-5754:---5------2222-5555-7575:
    E:-5555-5555------------------------------:-5---2222---------------:
    
    G:-------------------------------------------------------------------:---…
  • G:------------------------------:-----------------:---|
    D:------------------------------:---5-2-------2---:---|
    A:-3/53/53------5555-2222-3333:-3-----5-3-5---5-:---|
    E:----------3333---------------:-----------------:-3-|…
  • G:---------------------:---------------------------------------:
    D:(2222-2222)----------:---------------------------------------:
    A:---------------------:-4444-4444-2222-2222------2222---------:
    E:-0000-0000--55555555-:----------------------0000----2222-5555:
    
    G:-----------------------------------------------------------------
    D:-----------------------------------------------------------------
    A:-----------------------------2222-2222---------4444-4444---------…
  • G|----------------------------------------------------------|
    D|----------------------------------------------------------|
    A|-77777777777777777777777777777777-9-9-----7777777777777777|
    E|--------------------------------------5-5-----------------|
    
    G|---------------------------------------------------|
    D|---------------------------------------------------|
    A|-7--6--4---------------------------2---------------|
    E|----------7--5--3-2--0-000-000-00-3-5-555-5-5-555-5|…
  • G:-----------:-----------------------------------|
    D:-----------:-----------------------------------|
    A:-3333-5555-:---------5555555-3333-5555---------|
    E:-----------:-3333333-------------------3333333-|
    
    G:--------------------------------:----------------:---|
    D:--------------------------------:---------2-22-0-:---|
    A:------5555------3333-3333-55555-:------22--------:---|
    E:-3333------3333-----------------:-3-33-----------:-3-|…
  • G:------------------------------------------------------------------|
    D:------------------------------------------------------------------|
    A:-----------333333333-----------333333333-------5--333-333-333-333-|
    E:-000000000-----------000000000-----------3-2-0--------------------|
    
    
    G:-----------------------------------------|
    D:-----------------------------------------|
    A:-3333-3333-3333-3333-5555-5555-5555-5555-|
    E:-----------------------------------------|…
  • G:----------|-----------------------------------------------------------
    D:----------|-----------------------------------------------------------
    A:-55---22--|-----------------2222222222222222--------------------------
    E:---55---33|-0000000000000000----------------333333333333-0-0-2-2-3-3-5
    
    G:---|
    D:---|
    A:---|
    E:-5-|
    
    G:------------------------------|---|
    D:------------------------------|---|
    A:-5-5-555----------------------|-5-|
    E:--------3-3-333-55-5555-3335-5|---|…
Наверх