Аккорды «Jaco Pastorius»

Jaco Pastorius
Джако Пасториус (настоящее имя: Джон Фрэнсис Пасториус III ) (1 декабря 1951—21 сентября 1987) — бас-гитарист, знаменитый своей игрой на безладовой бас-гитаре. Многие осмеливаются считать его величайшим бас-гитаристом, не забывая также и о его композициях и аранжировках. Джако Пасториус родился в Пенсильвании, но вскоре его семья переехала в Форт-Лодердейл (Флорида), где к нему позже и пришла первая слава. Занимаясь музыкой с юности, в 1974 он начал играть со своим другом Пэтом Мэтини. В 1976… Читать полностью... Джако Пасториус (настоящее имя: Джон Фрэнсис Пасториус III ) (1 декабря 1951—21 сентября 1987) — бас-гитарист, знаменитый своей игрой на безладовой бас-гитаре. Многие осмеливаются считать его величайшим бас-гитаристом, не забывая также и о его композициях и аранжировках. Джако Пасториус родился в Пенсильвании, но вскоре его семья переехала в Форт-Лодердейл (Флорида), где к нему позже и пришла первая слава. Занимаясь музыкой с юности, в 1974 он начал играть со своим другом Пэтом Мэтини. В 1976 Пасториус был приглашён в группу Weather Report, где он играл с Джо Завинулом и Уэйном Шортером до 1982. Первый альбом Джако Пасториуса вышел в 1976 году. В период с 1980 по 1984 годы Пасториус совершил ряд турне со своим биг-бэндом Word of Mouth. Также Джако отметился работой на нескольких альбомах Джони Митчелл. Выпустив в 1976 году под своим собственным именем дебютный альбом, Джако Пасториус написал новую главу в истории бас-гитары. Как точно выразился один из последователей Пасториуса, "Джако открыл дверь, и мы все прошли в нее". Подход Джако Пасториуса к бас-гитаре, как солирующему инструменту был в 1976 году беспрецедентным, а его использование искусственных флажолетов в качестве мелодического средства было просто революционным и указало новое направление целому поколению бас-гитаристов, которое он пробудил. Самопровозглашенный "Величайший бас-гитарист мира" впервые появился на музыкальном небосклоне в составе Weather Report, лучшей фьюжн-группы 70-х. Созданная Джо Завинулом и Уэйном Шортером группа Weather Report после прихода Пасториуса стала популярным концертным действом. "До появления Джако, - говорит Завинул, - нас принимали как исполнителей своего рода эзотерического джаза. Мы были популярны в кампусах колледжей, но после того, как Джако присоединился к нам, мы стали распродавать шоу в больших концертных залах повсюду. Джако стал для этих ребят национальным героем. Weather Report были и раньше действительно мощной группой, но Джако жил в своем собственном мире. Он так отличался от всех бас-гитаристов того времени. У него была та же магия, что у Джими Хендрикса. Он был совершенным шоу-меном и замечательным музыкантом". Обладающий прирожденным талантом к выступлениям, экстраверт Джако действительно разбирался в том, как развлекать публику, не меньше, чем в истории джаза. Толпы валили, чтобы посмотреть на то, как он прыгает со своего усилителя - явный реверанс в сторону роковой манеры поведения, которой он проникся дома во Флориде. Со своим собственным стилем Джако стал олицетворением музыки фьюжн в целом, привлекая внимание рок-публики к новой музыке, прокладывая мосты между Джими Хендриксом и Джоном Колтрейном, Дюком Эллингтоном и Чарли Паркером, Бобом Марли и Джеймсом Брауном, Иоганном Себастианом Бахом и Beatles. Начав как ударник, по примеру своего отца - непоседливого джазмена Джека Пасториуса, Джако переключился затем в 15-летнем возрасте на бас. Он играл в духовом оркестре Las Olas Brass, которая играла популярный материал ведущих исполнителей того времени: Ареты Франклин, Отиса Реддинга, Вилсона Пикетта, Джеймса Брауна и Tijuana Brass. Переход на бас, по признанию Джако, был обусловлен не его выбором. "Случилось так, - вспоминал Пасториус, - что они взяли другого ударника, который был старше меня и технически намного лучше играл. А когда штатный бас-гитарист ушел примерно в то же время, я перешел на бас". Для него это было нетрудно. Его большие руки и длинные подвижные пальцы казалось были созданы для игры на басу. Его первым инструментом была подержаная дешевая гитара, которую он купил за 15 долларов. Интенсивно упражняясь на протяжении последующих нескольких месяцев он за короткий срок научился прилично управляться с инструментом. Его младший брат Рори Пасториус хорошо помнит быстрые успехи Джако на басу: "Когда ему исполнилось 16, он был, наверное, лучшим бас-гитаристом в Южной Флориде. Когда ему исполнилось 17, он определенно был лучшим басистом во всем штате". К тому моменту Джако уже превосходно освоил свой фирменный стиль фанковых перкуссивных 16-х, который позже проявится на таких композициях Пасториуса, как "Come On Come Over" и "Opus Pocus" с его дебютного альбома и "Barbary Coast" с Black Market, его первого опыта с Weather Report. Эта техника в сочетании со звуком его безладового Fender Jazz Bass 1962-го года, усилителями Acoustic 360 и струнами с круглой навивкой, помогала Джако достичь более яркого, напористого звука с большим сустейном в каждой ноте. Все это стало голосом Джако и оставалось его фирменным знаком на протяжении всей его успешной карьеры. Вооруженный необходимым инструментарием, огромным талантом и эго ему под стать, Джако стал "крестоносцем", готовым завоевать весь мир. Он постепенно брал ступень за ступенью на пути к успеху, начав с местных групп, таких как трио с фанковым органом Hammond B-3 Woodchuck (1969-70) и прилизанная группа белого соул Tommy Strand & The Upper Hand (1971-72) и перейдя в гастролирующую по всей стране группу Wayne Cochran & The C.C. Riders (1972-73), которая послужила закалкой "творческого фонтана" Джако. Это выступления с Кокрэном - несколько концертов в день, семь дней в неделю - выработали его невероятную выносливость и техничность, которые затем так хорошо послужили ему в компании быстрых Завинула и Шортера в Weather Report. И именно тогда Джако начал осваивать аккордовую игру, ложные флажолеты и перкуссивные эффекты на бас-гитаре, приемы, которые позже проявились в его камерных записях с Джони Митчел (Hejira, 1976 и Don Juan's Reckless Daughter, 1977). Вот как объясняет его коллега по ритм-секции C.C. Riders, ударник Эллин Робинсон: "Его игра была такой эмоциональной и творческой, но она не была сумбурной. При всей насыщенности она была текучей, это было как жизнь, как дыхание, в ней были Инь и Янь. Красота игры Жако заключалась не в очевидных вещах. Дело было вовсе не в том, что он мог быстро играть. Дело было в его фразировке. Джако делал мое звучание хорошим. У меня ни до ни после не было такой зацепки с другим басистом. Никогда не появится кто-либо вроде Джако. Для меня существует бас-гитара до Джако и бас-гитара после Джако. Именно так. Я хочу сказать, что у него был божий дар". Жако достиг с Weather Report реактивного взлета до статуса суперзвезды (1976-82). Как говорит барабанщик и его коллега по Weather Report Петер Эрскин: "С одной стороны он был огромным явлением в музыкальном бизнесе, Майкл Джексон от джаза. Он производил такое невероятное впечатление. Для творческого инструменталиста, такое воздействие беспрецедентно. Он был тем, в ком чувствовался просто невероятный потенциал. Он действительно держал мир за хвост". В середине 1980-х годов у Пасториуса начались проблемы с психикой, налицо были симптомы маниакальной депресии. Его здоровье ухудшалось из-за употребления наркотиков и алкоголя. В итоге Джако Пасториус потерял уважение публики и стал изгоем музыкального бизнеса. в 1987 году в Форт-Лодердейле в клубе Midnight Club одна из ссор с тамошним вышибалой закончилась дракой. Врачи констатировали необратимое поражение головного мозга. Пасториус скончался, не выходя из комы, 21 сентября 1987 года, всего десять недель не дожив до 36-летия. Но его наследие, записанное с Weather Report, Джони Митчел и его собственным проектом Word of Mouth живет сквозь время. В честь великого басиста Майлз Дэвис на альбоме Amandla вместе с Маркусом Миллером записал композицию "Mr. Pastorius". Скрыть...
Популярные аккорды Jaco Pastorius:
алфавиту | просмотрам | случайно
  • w/ Weather Report
     
     w 4x s s s s s s s s s s s s s s s s   s s s s s s h
    -r-||-----5---3-----------0-2-0-------|---2-----------|-----
    ---||-r-----------5---1-2-------2-0---|-r---4---------|----
    ---||---3---3---3---3---------------4-|-------2-r-2-r-|-----
    ---||---------------------------------|---------------|-----…
  • G---------------------------2----7-7-5-7------------------
    D---------------------------0----------------1/3-3--------
    A----------1-1/3------------------------------------------3-----1--
    E--1---1-3--------0--3--1----------------0-------------------------
    
    G-----------------------------really-------------6-7-9----
    D--5-------1/3-2-------4---6----big------6-7-8-9----------
    A----6-6-----------0-4---6-----hard----7---------------------
    E------------------------------solo--------------------------
    
    w/sampler:…
  • G||------------------------------------------||
      D||*-------------------------------------*||
      A||*----------------------------------------*||
      E||---------------------------------------------------||
    
        Just play this…
  • Rhythm fig. 1
    
          _______ _______ _______   ______       ____   ________  ________
      4   |-|-|-| |-|-|-| |-|-|-|   |-r  |       |  |   |--|-|-|  |--|-|-|
      4   | | | | | | | | | | | |   | |  |       |  |   |  | | |  |…
  • _____     _____         _____     _____         _____     _____
     4  |  |-| |  |  |-| |      |  |-| |  |  |-| |      |  |-| |  |  |-| |
     4  |  | | |  |  | | |      |  | | |  |  | | |      |  | | |  |  | | |
    G|-----------------------|-----------------------|-----------------------|
    D|-----7-7-5-----7-7-5---|-----7-7-5-----7-7-5---|-----7-7-5-----7-7-5---|
    A|--5---------5----------|-----------------------|--5---------5----------|
    E|-----------------------|--8---------8----------|-----------------------|…
  • G|--12-13-12------------------------------|------------------------------                 
    D|-----------15-14-13---------------------|---------------------10-------
    A|--------------------1615-13-12------8--|-9-11-9-8-------8-11----10-8--
    E|--------------------------------8-11----|----------11-10---------------
    
    
    G------|-------------4-8-6-----5-3---------|-----0-3-1-----------10-9----|
    D------|-----------6-------3-6-----1h2p1---|---1-------1-3--8-11------10-|
    A-7-4--|-6-----4-7-----------------------4-|-3---------------------------|
    E------|---5h6-----------------------------|-----------------------------|
    
    
    G|-/8~---------8-----11-9-------|----------------------------------10-11-
    D|-----11-10-8---11-------13-11-|-10-10-11-12-13-11-10-------10-13-------
    A|------------------------------|----------------------13-12-------------
    E|------------------------------|----------------------------------------
    
    
    G-13-11-10----|----------------------------------|-8-6----------------
    D----------13-|-12-11-10-------------------------|-------6-10-8---6-5-
    A-------------|----------12-13-11---6--96---8-|-----8--------6-----
    E-------------|-------------------8--------------|--------------------
    
    
    G------8-9-11-9-8----|-------12-13-12------------------------------|
    D-8-11------------11-|-10-------------15-14-13---------------------|
    A--------------------|-------------------------1615-13-12------8--|
    E--------------------|-------------------------------------8-11----|
    
    
    G|------------------------------------|-----------------------------------
    D|---------------------10-------------|--------7-8---------11-13-11-10----
    A|-9-11-9-8-------8-11----10-8---10-8-|-7-8-10-----1110-8-------------13-
    E|----------11-10---------------------|-----------------------------------
    
    
    
    G----------------|-----------|---------------------8-9-8-9---------------|
    D----------------|-----------|-10-9-10-11-12-11-12---------13-12-1110-8-|
    A-11-13-11-10----|--------10-|-------------------------------------------|
    E-------------12-|-13--------|-------------------------------------------|
    
    
    
    
    
    G|-----------------------------12-10----|------------------------------
    D|-6-8-6-5-6-8-6-5---------6-9-------13-|-12-11-10---------------------
    A|-----------------8---5-8--------------|----------13-12-9-8------8-11-
    E|-------------------7------------------|--------------------11-9------
    
    
    G---------------|---------------------------------10-12-13----------|
    D-10-8----------|--------------13--10x------11-13----------13-10----|
    A------11p10----|-11--13-10-11---------11x-----------------------11-|
    E------------11-|---------------------------------------------------|…
  • ____ _______ _______      _____ _______ _______ _______
     4    | -| |-|-|-| |-|-|-| |    | |-| |-|-|-| |-|-|-| |-|-|-|
     4    |. |_| | | | | | | | |____| | | | | | | | | | | | | | | 
    G|---------------------------|----8-8---6-x--------------------|
    D|-------9---9---------------|--------6-----x-9-9--------------|
    A|----7--------------7-9---7-|-(7)----------------x-----7-9-0--|
    E|-------------7-7h9-----7---|----------------------7h9--------|…
  • h = hammer on
    / = slide up
     = slide down
    X = dead note
    
    Intro
    G------------------11-9-11----9-----------9---------7--------4----------------
    D-------------9-11---------11---9-11--------9---------8--------6-4-6---4------
    A-------12-11------------------------11-8-----11--------8------------7---4-4--
    E--9-10------------------------------------------12-------10------------------
    
    Part…
  • NOTES:
    
    - Regularly notated notes are harmonics
    - Fretted notes are notated as n*
    - 3+ means harmonic played at approx. 0.25 of the
      distance 3rd-4th fret above the 3rd fret (find
      out on your own instrument at which position…
  • G|--------------6-7-5--------------|------------------9--9----9----9------|
    D|--------5-7-9-------8-7-5--------|-------------7-8--8----8----8----8----|
    A|--5-7-8-------------------8-7-5--|------7-8-10------0------0----0----0--|
    E|---------------------------------|-9-10---------------------------------|
    
    
    G|-------------------12----------------------------|--------------------
    D|----------12-14-15----15-14-12-------------------|-------------11-12--
    A|-12-14-16----------------------16-13-12----------|----------12--------
    E|----------------------------------------15-13-12-|-10-12-13-----------
    
    
    G--10-----------------|-----------------12-------14-------15-|
    D---0-----------------|--------12----12-------12-------12----|
    A--12-----------------|-----12----------------------10-------|
    E---------10-10-10----|--10-------12-------13----------------|…
Наверх