Аккорды «Jay-z»

Jay-z
Шон Ко́ри Ка́ртер ((англ. Shawn Corey Carter), более известный как JAY Z (англ. Джей Зи) 4 декабря 1969, Бруклин, Нью-Йорк) — американский рэпер, один из самых влиятельных и состоятельных деятелей современной хип-хоп музыки, имел собственный капитал более $500 млн. по состоянию на 2012 год. Джей Зи, избавился от дефиса в своем псевдониме: теперь он называет себя не Jay-Z, а JAY Z. Об этом сообщает в твиттере журналист Billboard Джо Леви, ссылаясь на лейбл, издающий рэпера. 12 его альбомов отметились… Читать полностью... Шон Ко́ри Ка́ртер ((англ. Shawn Corey Carter), более известный как JAY Z (англ. Джей Зи) 4 декабря 1969, Бруклин, Нью-Йорк) — американский рэпер, один из самых влиятельных и состоятельных деятелей современной хип-хоп музыки, имел собственный капитал более $500 млн. по состоянию на 2012 год. Джей Зи, избавился от дефиса в своем псевдониме: теперь он называет себя не Jay-Z, а JAY Z. Об этом сообщает в твиттере журналист Billboard Джо Леви, ссылаясь на лейбл, издающий рэпера. 12 его альбомов отметились на вершине Billboard Top 200. Это рекорд среди всех сольных исполнителей и второе место в истории после The Beatles, у которых 19 альбомов поднимались на первое место в США. Скрыть...
Популярные аккорды Jay-z:
алфавиту | просмотрам | случайно
  • Tuning: Standard
    
    e|----------------------------------------------------------------------------------|
    B|------6-6-5-----------------------------------------------------------------------|
    G|7-------------------7--5-----4--5-------------------------------------------------|
    D|--7-7-------7-----9-------7-------------------------------------------------------|
    A|--------------7-7-----------------------------------------------------------------|
    E|----------------------------------------------------------------------------------|…
  • Furst Part
    
    E|------75320--00000------------------------|
    B|----0-------------------------------------|
    G|------------------------------------------|
    D|------------------------------------------|
    A|------------------------------------------|
    E|------------------------------------------|
    
    
    Second…
  • ----------------------------------------------------
    ----------------------------------------------------
    5--5--5--5-4-5-7-7-4h5------4--4--4--4--2-4-7-7-4h5-
    ----------------------------------------------------
    ----------------------------------------------------
    ----------------------------------------------------
    
    ----------------------------------------------------
    ----------------------------------------------------
    5--5--5--5-4-5-7-7-4h5------4--4--4--4--2-4-7-7-4h5-
    ----------------------------------------------------
    ----------------------------------------------------
    ----------------------------------------------------
    
    ----------------------------------------------------
    ----------------------------------------------------
    5--5--5--5-4-5-7-7-4h5------4--4--4--4--2-4-7-7-4h5-
    ----------------------------------------------------
    ----------------------------------------------------
    ----------------------------------------------------
    
    ----------------------------------------------------
    ----------------------------------------------------
    5--5--5--5-4-5-7-7-4h5------4--4--4--4--2-4-7-7-4h5-
    ----------------------------------------------------
    ----------------------------------------------------
    ----------------------------------------------------…
  • el------------------------------------------------------------------|l
    Bl------------------------------------------------------------------|l
    Gl---10-10-10----10-10----------------------------------------------|l
    Dl---10-10-10----10-10---------Repete…
  • G|----------------|-----------------------|
    D|----------------|----------------------*|
    A|-6-----4--------|----------------------*|
    E|----6----------4|-4-4-4-4-4-4-4-4-4-4-4-|
    
    
  • 1:-------------------------------------------------
    2:-------------------------------------------------
    3:-------------------------------------------------
    4:-19--20-17--17-15-14-15-17- 19-15--12-14-15-17-19
    5:-------------------------------------------------
    6:-------------------------------------------------
    
    1:-------------------------------------------------
    2:-------------------------------------------------
    3:-------------------------------------------------
    4:-19--20-17--17-15-14-15-17-…
  • Repeat a lot   
    e|---------------------------------------------------------------------
    B|---------------------------------------------------------------------
    G|---------10-10-9-----------------------------------------------------
    D|--10-9-7---------9-7-0-9-9-10-12-10-9-10-9-7-9-----------------------
    A|---------------------------------------------------------------------
    E|---------------------------------------------------------------------…
  • Standard tuning
    
    (intro)
    E----------------------------------------------------|
    B----------------------------------------------------|
    G----------------------------------------------------|
    D----------------------------------------------------|
    A--0-0-0-0-3/7-3/7-3/7-3/7-3/7-3/7-3/7---------------|
    E----------------------------------------------------|
    
    
    (chorus)
    E-----------------|-----------------|
    B-----------------|-----------------|
    G-----------------|-----------------|
    D-----------------|-----------------|
    A-0--0--0--0-----0|0--0--0--3-3----0|
    E-------------3---|--------------3--|…
  • e|---------------------------------------------------------------------------|
    B|---------------------------------------------------------------------------|
    G|---------------------------------------------------------------------------|
    D|------------2222----then…
  • e:2-2-2-2-3-2-x-1-1-1-1-3-1--3-3-3-3-5-x-2-2-2-2-3-0----------------|
    B:3-3-3-3-3-3-x-1-1-1-1-1-1------------x-3-3-3-3-2-0----------------|
    G:2-2-2-2-2-2-x-2-2-2-2-2-2------------x-2-2-2-2-2-0----------------|
    D:------------x-3-3-3-3-3-3------------x----------------------------|
    A:------------x--------------2-2-2-2-2-x----------------------------|
    E:------------x--------------3-3-3-3-3-x----------------------------|
    
    play…
Наверх