Аккорды «Jebediah»

Jebediah
Jebediah - австралийская альтернативная рок-группа, сформировавшаяся в 1994 г. в городе Перт, Западная Австралия. Первоначально группа состояла из Криса Даймонда - гитара, Кевина Митчелла (он же Боб Эванс) - вокал и ритм-гитара, и Ванессы Торнтон - бас-гитара. Год спустя к ним присоединился старший брат Кевина, Бретт Митчелл, - барабанщик. Группа выпустила четыре студийных альбома к 2004 г.: три вошли в десятку на ARIA Albums Chart. Их второй альбом - "Of Someday Shambles" (3 октября 2000 г.) достиг… Читать полностью... Jebediah - австралийская альтернативная рок-группа, сформировавшаяся в 1994 г. в городе Перт, Западная Австралия. Первоначально группа состояла из Криса Даймонда - гитара, Кевина Митчелла (он же Боб Эванс) - вокал и ритм-гитара, и Ванессы Торнтон - бас-гитара. Год спустя к ним присоединился старший брат Кевина, Бретт Митчелл, - барабанщик. Группа выпустила четыре студийных альбома к 2004 г.: три вошли в десятку на ARIA Albums Chart. Их второй альбом - "Of Someday Shambles" (3 октября 2000 г.) достиг второго места в чартах, что является высшим достижением группы. После гастролей, посвященных десятилетию группы, Jebediah взяли перерыв в 2005 г. Кевин Митчелл продолжил сольную работу под псевдонимом Боб Эванс. Кевин также принял участие в записи одноименного альбома группы the Basement Birds совместно с Кевьеном Темперли, Джошом Пайком и Стивом Паркином в июле 2010 г. В 2010 г. группа выпустила пятый альбом - "Kosciuszko", который в следующем году попал в the ARIA top ten. Скрыть...
Популярные аккорды Jebediah:
алфавиту | просмотрам | случайно
  • Structure: intro 1- intro 2- verse- chorus-interlude------|
    distorted bit- verse- chorus- interlude 2- distorted bit--|
    bridge- verse- chorus- outro.
    
    --0-0-0--2-2--2-2-2--2-2--|----|----------------------------------------------|
    --0-0-0--2-2--4-4-4--4-4--|----|----------------------------------------------|
    --1-1-1--3-3--4-4-4--4-4--|----|----------------------------------------------|
    --2-2-2--4-4--4-4-4--4-4--|-x2-|----------------------------------------------|
    --2-2-2--4-4--2-2-2--0-0--|----|----------------------------------------------|
    --0-0-0--2-2--------------|----|----------------------------------------------|…
  • Intro		(x4)
    
    G----------------------------------------------------------------
    D----------------------------------------------------------------
    A----------------5>4>5>4>------------------------4-5-------------
    E-5-0-5-0-5-0-5----------7-5------0-5-0-5-0-5-7-----------------
    
    
    Pre…
  • VERSE
              E--------------------------
              B--------------------------
              G-----4--6-----8-----4-----
              D--4--4--6--8--8--6--4--4--
              A--4--2--4--8--6--6--2--4--
              E--2--------6-----4-----2--…
  • INTRO/VERSE/BRIDGE
    
    e|----------------|----------------|----------------|----------------|
    b|----------------|----------------|----------------|----------------|
    g|6-6-6-6-6-6-6-6-|6-6-6-6-6-6-6-6-|4-4-4-4-4-4-4-4-|4-4-4-4-4-4-4-4-|
    d|6-6-6-6-6-6-6-6-|6-6-6-6-6-6-6-6-|4-4-4-4-4-4-4-4-|4-4-4-4-4-4-4-4-|
    a|4-4-4-4-4-4-4-4-|4-4-4-4-4-4-4-4-|2-2-2-2-2-2-2-2-|2-2-2-2-2-2-2-2-|
    e|----------------|----------------|----------------|----------------|
    1…
  • Intro
    G|------------|
    D|------------|
    A|0-/5-5-5---|
    E|------------|
    
    
    Verse
    G|-----------|
    D|-----------|
    A|0-/5--/2--|
    E|-----------|
    
    G|---------------|
    D|---------------|
    A|---------------|
    E|-3-3-3-3-3h4---|
    
    
    Chorus
    G|----------------------------|
    D|----------------------------|
    A|-5--0-2-3--2-0-2--0-2-3--2-0|
    E|----------------------------|
    
    G|--------------------------------|
    D|--------------------------------|
    A|--------------------------------|
    E|-3-3-3-3-3-3-3-3-3-3-3-3-3-3-3-3|
    
    
    Bridge
    G|-----------------|
    D|-----------------|
    A|0-/5--/2--/2-/2-|
    E|-----------------|
    
    
    Outro
    G|----------------|----------------|----------------|
    D|----------------|----------------|----------------|
    A|-5--5-5-5-5-3---|--------------3-|----------------|
    E|--------------5-|-1--1-1-1-1-5---|-3--3-3-3-4-3-1-|
    
    G|----------------|…
  • G     - 320033 | Em - 022000
    Dsus4 - xx0233 | C  - 032010
    E/G   - 022033 | Bm - 004432
    D     - 000323 |
    
    
    Intro/Chorus x 4
    e|-----------------|-----------------|------------------|-----------------|
    B|-----5-----------|-----5-----------|-----3------------|-----------------|
    G|---------7-----7-|---------7-----4|---------5-4---/5-|-----4---2---4---|
    D|-5-5---5-----5---|-4-4---4-----4---|-2-2---2-----2--0-|---0---0---0-----|
    A|-----------------|-----------------|------------------|-----------------|
    E|-----------------|-----------------|------------------|-----------------|…
  • S1: 
      ---===MAIN RIFF===--- 
    
      Guitar 1 
      e: -----------------------------------------------------------| 
      b: -----------------------------------------------------------| 
      g: -----11--11-9-------11--11-9-------11--11-9-------11--11-9-|…
  • TUNING: standard
    (low to high: E-A-D-G-B-E)
    
    
    INTRO (rhythm & lead, w/bagpipes)
    E |------------------------------------------------------------------------|
    B |------------------------------------------------------------------------|
    G…
  • Intro Rhythm
              
              E|------------------------------------------------------------
              B|------------------------------------------------------------
              G|-6-------6-------6------------------------------------------…
  • INTRO
    G:---------------------------------
    D:-------------------------45------
    A:54----2-54----25-4----255--------
    E:--52-4----52-4----52-4-----2---2-
    
    
    PRE-VERSE
    G:-------------------------------
    D:-------------------------------
    A:----1---2-----54----25-4-------
    E:2----------2----52-4----5-2020-
    
    
    VERSE
    G:-----------------------------|-----------------
    D:---------------45-----45-----|-----------------
    A:----1---2-----5------5-------|54----25-4-------
    E:2----------2-----2--2---2020-|--52-4----5-2020-
    
    
    CHORUS
    G:------------|------------------
    D:------------|------------------
    A:2----5------|------------------
    E:----------2-|3-------------/8-
    
    
    BRIDGE
    G:-------
    D:-------
    A:-------
    E:3----2-
    
    
    GUITAR…
  • verse riff
    --------------------------------------
    ----------r---------------------------
    ----------e---5-/-7--5-/-7--5-------
    --5---5---s---------------------------
    --5---5---t---------------------------
    --3---3-------------------------------…
  • Intro
    G|------|
    D|-9/11-|
    A|------|
    E|------|
    
    G|-----------------|-----------------|-----------------|-----------------|
    D|-----------------|-----------------|-----------------|-----------9/11--|
    A|-----------------|-----------------|-7-7-7-7-7-7-7-7-|-9-9-9-9-9-------|
    E|-9-9-9-9-9-9-9-9-|-9-9-9-9-9-9-9-9-|-----------------|-----------------|
    
    G|-----------------|-----------------|-----------------|-----------------|
    D|-----------------|-----------------|-----------------|-----------9/11--|
    A|-----------------|-----------------|-7-7-7-6-6-7-7-7-|-9-9-9-9-9-------|
    E|-9-9-9-7-7-9-9-9-|-9-9-9-7-7-9-9-9-|-----------------|-----------------|
    
    
    Verse
    G|-----------|-----------|-----------|-----------------------|
    D|-----------|-----------|-----------|-------------------14-|
    A|-7--7-9--7-|-7--7-9--7-|-7--7-9--7-|-12-12-12-12-12-12-----|
    E|-----------|-----------|-----------|-----------------------|
    
    *variations…
  • intro
    G:-----------------------------------
    D:-----------------------------------
    A:---------5-5-5-5-0-0-0-0-----------
    E:-2-2-2-2-----------------10/17-17/-
    
    
    verse
    G:---------------------------------
    D:---------------------------------
    A:---------5-5-5-5-0-0-4---4-5-4-0-
    E:-2-2-2-2---------------5---------
    
    
    pre-chorus
    G:---------------------------------------
    D:---------------------------------------
    A:-5-5-5-------------5-5-5-------------
    E:--------2-2/7-0-0-2--------2-2/7-0-0-2-
    
    G:----------------------------------------------------
    D:----------------------------------------------------
    A:-5-5-5-------7-7-9-5-5-5-5--5-5-5-5--5-5-5-5-5-7-7-
    E:-------2-2/7----------------------------------------
    
    
    chorus…
  • Intro:
    
    Main Riff (Lead)    		Last Bit of Main Riff (Lead)
    
    e------------------         |------------------------------|
    B-4----------------         |------------------------------|
    G---5-----5-----5--         |-----5-----5-----5-----5------|
    D-----4-6---4-6----…
  • S1: --==Intro / Chorus==-- 
      Guitar 1 
      e: ----------------------------------------| 
      B: ----------------------------------------| 
      G: --7-7-7-7--5-5-5-5---0-0-0-0--2-2-2--0--| 
      D: ----------------------------------------|…
  • Intro-Wired Guitar Noises
              
    
              Verse-Rhythm /lead plays little arpeggios
              
              E|------------------------------|---------------------------
              B|------------------------------|---------------------------…
  • Intro/Pre-Chorus
    G|---------------------------------|
    D|---------------------------------|
    A|---------------------------5-4-0-|
    E|-3-3-3-3-3-3-3-3-3-3-3-3-3-------|
    
    
    G|---------------------------------|
    D|---------------------------------|
    A|-2-2-2-------2---2---2-------2---|
    E|-------5-2-5---5---5---5-2-5---5-|
    
    
    Intro/Chorus/Bridge…
Наверх