Аккорды J:МОРС - Жывi

Добавлено: @romashka
Дата добавления: 07 Декабря 2017г.
Рейтинг:
0.0
Просмотров: 198
Транспонировать - +
Intro: Bm

Куплет:
Bm
Ты сябе не переможаш
D7
Толькi стомiшся
Dm
I кожнай кропляю сваёй
E
Знiкнеш у зямлi
Bm
Ты мяне не пакахаеш
D7
Засцярожана
Dm
Ад фальшу. У вачах тваiх
E
Несапраўдны смех

Припев:
Am Am/G D#dim
Жывi i ня ведай
Dm E
Мне так будзе лягчэй трываць
Am Am/G D#dim
Крывi не пазбеглi
Dm E
Я не здолеў далей кахаць

Проигрыш: Am Am/G F+7

Куплет:
Bm
Я не варты дапамогi
D7
Ты даруеш мне знямогу
Dm
I вяртаеш днi
E
Непатрэбныя
Bm
Ты сябе не пераможаш
D7
Толькi стомiшся
Dm
I кожнай кропляю сваёй
E
Знiкнеш у зямлi

Припев:
Am Am/G D#dim
Жывi i ня ведай
Dm E
Мне так будзе лягчэй трываць
Am Am/G D#dim
Крывi не пазбеглi
Dm E
Я не здолеў далей кахаць

C#m F# B
Цябе талыя ручаi
E C#m D#7
Паклiкалi ад мяне

Solo:
(strings)
e|----------------------------------------|
b|---------10-------------9-10-12---------|
G|-7--9-11-----10-9-10--9-----------------|
D|----------------------------------------|
A|----------------------------------------|
E|----------------------------------------|
Bm D7 Dm E

(guitar) (strings)
e|--------------------|
b|------------6-5-6---|
G|-6-7--sl----------7-|
D|-----4--7-----------|
A|--------------------|
E|--------------------|
Bm D7 Dm

(guitar)
e|-13-12-13-12-|
b|-13-12-13-12-|
G|-------------| (x4)
D|-------------|
A|-------------|
E|-------------|
E

Припев:
Am Am/G D#dim
Жывi i ня ведай
Dm E
Мне так будзе лягчэй трываць
Am Am/G D#dim
Крывi не пазбеглi
Dm E
Я не здолеў далей кахаць

Solo:
(guitar)
e|---sl----sl------------------------------------------------|
b|-10-----8------7--7h8p7p6h7------------sl------------------|
G|-----------------------------7h9h10~~~----------------10-9-|
D|--------------------------------------------9h10h12~~------|
A|-----------------------------------------------------------|
E|-----------------------------------------------------------|
Am Am/G D#dim Dm E

e|-----------------------------(12)b13-12-10--------------10b12b10--(15)b17~~~-|
b|-10-----12-----16-14b16~~------------------13-12-10--------------------------|
G|----------------------------------------------------13-----------------------|
D|-----------------------------------------------------------------------------|
A|-----------------------------------------------------------------------------|
E|-----------------------------------------------------------------------------|
Am Am/G D#dim Dm E Am         
comments powered by Disqus
Наверх