Аккорды Joe Bonamassa - Blues Deluxe

Добавлено: @romashka
Дата добавления: 30 Января 2024г.
Рейтинг:
0.0
Просмотров: 208
e|-------------6v---9b---6---------------------6-----6/8----6-------------------|
B|--------6-8--------------6-------------------6-----6/8----6-------------------|
G|----6h7--------------------8--6h7------------------6/8----6-------------------|
D|--8-------------------------------8--6v---------------------------------------|
A|------------------------------------------------------------------------------|
E|-----------------------------------------------6------------------------------|

e|--------9-11b-11b-11b-11b-11b-9-----------9b---13\-------13b-13-13b-13-11b-11--11-----------------------|
B|--11-11-------------------------11v-----11-----13\---------------------------14--14p11---11-11v---------|
G|--------------------------------------10-----------------------------------------------12---------------|
D|--------------------------------------------------------------------------------------------------------|
A|--------------------------------------------------------------------------------------------------------|
E|--------------------------------------------------------------------------------------------------------|

e|-----------------------------------------------------------------6-8-7p6---9b(11)-9-6-------------------|
B|----11-13b(13)b-11-11----11------------------------------6-9b(10)-------9-6----------6------------------|
G|--12-----------------------10h12-10---------------6-8b(9)-----------------------------8/9-8p6-6-(6)h8---|
D|-----------------------------------11\10-8-----5-8-------------------------------------------8----------|
A|------------------------------------------8-7-6---------------------------------------------------------|
E|--------------------------------------------------------------------------------------------------------|

e|--18ֿ\---11b(13)(11)(12)-9------------------------13---------------------------|
B|---x---------------------11v----------11-13b(15)(13)-13b(15)(13)(15)(13)p11---|
G|---x----------------------------10-12-----------------------------------------|
D|---x--------------------------------------------------------------------------|
A|------------------------------------------------------------------------------|
E|------------------------------------------------------------------------------|

e|-13b-13-13b-13-11b(12)-11----11------------------------------------------------|
B|--------------------------14----14p11----11-11v---11-13b(15)(13)(15)-11-11-----|
G|--------------------------------------12--------12-----------------------------|
D|-------------------------------------------------------------------------------|
A|-------------------------------------------------------------------------------|
E|-------------------------------------------------------------------------------|

e|-----8-8b-8-8b-8-6b(7)-6-----6h7-6---6--------------------------|
B|-6-8b-------------------9-6-9-----9p6-9p6--------------9--------|
G|-----------------------------------------8b(10)(8)p6-----8b-----|
D|-----------------------------------------------------8----------|
A|----------------------------------------------------------------|
E|----------------------------------------------------------------|

e|-------------------------------------------------|
B|-----11------------------------------------------|
G|-10b(12)-10b-10-8-6-8/9\8p6h8------8/10-6b-------|
D|----------------------------------8-------8------|
A|------------------------------8h10---------------|
E|-------------------------------------------------|

e|-----------6-----------------------------6----------------------------|
B|---------6---9-6-------------------------6-------------6/8---6v-------|
G|-----6h9---------8---6b-8b(10)(8)p6b---------------8---5/7---5v-------|
D|-----------------------8------------8--------------7---6/8---6v-------|
A|--------------------------------------------6-7/8--8------------------|
E|---6------------------------------------------------------------------|


************************************

| x   Dead note
| h   Hammer-on
| p   Pull-off
| b   Bend
| /   Slide up
| \   Slide down
| v   Vibrato
************************************
Но если и музыка нас оставит, что будет тогда с нашим миром? (Гоголь)
Мы стремимся к созданию контента, соответствующего всем нормам законодательства и уважающего интеллектуальную собственность. Мы также придаем большое значение тому, чтобы не задеть никого и не оскорбить чьи-либо чувства. Если у вас есть вопросы или претензии по размещенному материалу, пожалуйста, сообщите нам об этом на указанный адрес электронной почты: [email protected].
Шрифт
-
0
+
Прокрутка
-
0
+
Стоп
Наверх