Аккорды «Joe Satriani»

Joe Satriani
Джо родился 15 июля 1956 года в Вестбери, штат Нью-Йорк, США, а вырос в небольшом городке Кейрл Плейс. Помимо него в семье было еще четверо детей. Свое знакомство с музыкой он начал в 9 лет с барабанов, и сразу же стал брать уроки. Сначала у него была довольно своеобразная установка, которая состояла из кофейной банки и резинового пэда. Его отец придумал способ стимулировать обучение сына: когда Джо делал свое очередное задание и показывал, что он ответственный растущий музыкант, он получал что-то… Читать полностью... Джо родился 15 июля 1956 года в Вестбери, штат Нью-Йорк, США, а вырос в небольшом городке Кейрл Плейс. Помимо него в семье было еще четверо детей. Свое знакомство с музыкой он начал в 9 лет с барабанов, и сразу же стал брать уроки. Сначала у него была довольно своеобразная установка, которая состояла из кофейной банки и резинового пэда. Его отец придумал способ стимулировать обучение сына: когда Джо делал свое очередное задание и показывал, что он ответственный растущий музыкант, он получал что-то еще, например хай-хэт. Так, после примерно двухлетнего обучения, когда Джо уже мог читать с листа и импровизировать у него наконец-то появилась маленькая установка Ludwig. Вскоре Сатриани понял, что он не достаточно хорош, как те, кого он слушал, он чувствовал, как будто у него чего-то не хватает в физическом развитии для игры на барабанах, и он решает отдохнуть от музыки. В то же время Джо начинает увлекаться Hendrix и Cream, а также Led Zeppelin. Он точно решает: если он снова возьмется за музыку, это будет непременно гитара, а вскоре после смерти Хендрикса окончательно делает свой выбор в пользу гитары и начинает усердно заниматься на подаренной ему гитаре - Hagstrom III. В средней школе Кейрл Плейс, где учился Джо, помимо общих уроков надо было участвовать либо в хоре, либо в оркестре. Там его научили элементарной музыкальной теории, а также петь с листа. В это же время Джо начинает учиться по книгам и гармоническим схемам, которые берет у своих друзей. Быстро освоив гитару, параллельно с занятиями он начинает сам давать уроки. Стив Вай был одним из его первых учеников. Однако обучение - это не более чем побочный заработок для маэстро Сатриани. Дальше Джо двигался в том же направлении, в 11-12 классах он начал учиться музыкальной теории. Это была уже углубленная теория музыки, где его учили тому, как пишутся симфонии, кантаты и струнные квартеты. В то время, учась в Нью-Йорке, сдавали экзамены на уровне совета попечителей штата. Так что их учили очень серьезно и проверяли на уровне штата. Его учитель Bill Wescott был действительно энтузиастом музыки. Параллельно с учебой Джо выступает на школьных танцах и в парках, получая за это деньги, а в 16 лет он уже играет в клубах. “Когда я учился в 11 классе, мои родители обычно разрешали мне уезжать на выходные и играть концерты в Хэмптонсе, курортной окраине Лонг-Айленда. Это было как вернуться из другого мира. Вечером в воскресенье ты приезжал домой после того, как вел жизнь профессионального музыканта, и должен был делать уроки и идти в школу. Это было просто столкновение двух миров” – вспоминает Джо. Bill Wescott преподавал настолько исчерпывающе, что, когда Джо покинул школу, ему не было необходимости идти в колледж. К этому времени у него был уже большой опыт профессиональной работы в музыкальной сфере. Старший брат отца Джо всю жизнь был музыкантом. Поэтому он смягчил реакцию семьи на заявление Джо: “Я собираюсь покончить со школой и стать профессиональным музыкантом”. Поэтому Джо не встретил противодействия. После школы Сатриани переехал в Сан-Франциско, где он продолжил совершенствовать технику игры, работая в качестве сессионного музыканта, а также преподавателя. Около десяти лет, подрабатывая в музыкальном магазине, он постоянно занимался с начинающими гитаристами. Через его руки прошли такие личности, как Кирк Хэммит (Kirk Hammett - Metallica), Ларри Лалонд (Larry LaLonde - Primus), Дэвид Брайсон (David Bryson - Counting Crows), мастер джаз-фьюжна Чарли Хантер (Charlie Hunter). Помимо преподавания Джо постоянно выступает с различными командами, не задерживаясь ни в одной из них надолго. Дольше всего просуществовала группа The Squares, где играл барабанщик Джефф Кампителли (Jeff Campitelli), с которым в последствии Джо проведет вместе не один десяток лет. В начале 80-х Сатриани начинает задумываться о сольной карьере. В 1984 году он самостоятельно записывает, а потом выпускает (за свой счет) на независимом лейбле свой дебютный альбом "Joe Satriani", однако альбом не привлекает внимания общественности. Ситуация изменилась в 1986 году, когда один из лучших учеников Сатриани Стив Вай благодаря успешной работе в команде Дэвида Ли Рота (David Lee Roth) попал в поле зрения СМИ. В интервью для ведущих американских изданий Вай неоднократно упоминал своего замечательного учителя и хорошего друга Джо Сатриани. Эта незапланированная промо-кампания удачно совпала с выходом его сольного дебютного альбома "Not Of This Earth", в результате чего интерес в обществе к персоне Джо начал постепенно возрастать, но лучшее было еще впереди. В 1987 году, после выхода второго диска “Surfing With The Alien”, Сатриани проснулся знаменитым, его фотографии украсили все гитарные журналы. Сам Мик Джаггер пригласил его в тур по Австралии и Японии. Сам Джо так вспоминает этот период: “Предложение присоединиться к группе Джаггера подоспело очень кстати. В то время мой второй альбом "Surfing With The Alien" только-только увидел свет. Даже те люди, которым очень нравились мои диски, всё еще не знали, как я выгляжу. Как только я попал в коллектив Джаггера, у меня начали брать интервью "Rolling Stone", "CNN", "Wall Street Journal", "NY Times", и очень быстро ко мне пришла известность. А шанс выступить с таким шоуменом, как Мик Джаггер, выпадает раз в жизни”. Годом позже выходит альбом "Dreaming #11" (1988), объединивший студийные композиции и живые треки. А еще через год выпускается третий альбом Сатриани "Flying In A Blue Dream" (1989), на котором Джо дебютировал как вокалист. Новый толчок его карьера получила после того, как песня “One Big Rush” была использована в качестве саундтрека к фильму Кэмерона Кроу “Say Anything”. Примерно в это же время Джо начинает сотрудничать с Ibanez, в результате чего была разработана именная гитара - Ibanez JS Signature. Из-за работы над гитарой следующий альбом Сатриани "The Extremist" увидел свет лишь в 1992 году, однако, несмотря на долгий перерыв, альбом показал отличные результаты в американских чартах. В 1993 году выходит двойной CD "Time Machine". Первый диск содержит студийные записи и "бонусные треки с зарубежных альбомов" плюс треки с первого альбома “Joe Satriani” и три новые записи. Второй диск включает 14 концертных записей. В 1994 году Сатриани получает предложение занять место ушедшего Ричи Блэкмора (Ritchie Blackmore) в Deep Purple. После недолгих колебаний Джо согласился. Задача была не из легких, т.к. надо было в короткий срок выучить большое количество материала, но Джо блестяще справился с этой задачей, он даже получил предложение от Deep Purple остаться в группе в качестве постоянного гитариста, но Джо (что не удивительно) отказался. “Ощущения двойственные. Фактически я заменил самого Блэкмора. Потом думаю: “Минуточку! Ричи Блэкмор незаменим!”. Я видел лица слушателей, которые с трепетом смотрели на сцену, но понимал, что я - не один из Deep Purple. В репертуаре было несколько песен, которые лучше Блэкмора никому не сыграть. Потом мне дали послушать “живые” записи, и я понял, что некоторые “блэкморовские” партии радикально менялись от концерта к концерту. Он постоянно искал, как бы улучшить песню. И вот, уже будучи участником группы, я перенял эту эстафету. “Подгонка” главным образом касалась нового материала, с которым мы гастролировали. Им понравилась моя игра, мне понравилось играть с ними. Команда просто фантастическая!”- вспоминает Джо. В 1995 году Джо принялся за осуществление перспективного гитарного проекта, получившего название G3 - предполагалось, что в нем будут участвовать три ярких и самобытных гитариста. Рассказывает Джо Сатриани: “Как-то я пожаловался своему менеджеру - мол, чувствую себя изолированным от всего остального мира, сам в студии, сам на концертах... Мои гастроли и гастроли других гитаристов, вроде Стива, никогда не пересекаются. Мы лишены возможности общаться и обмениваться информацией. Гитаристы, сами знаете, обожают потусоваться друг с другом, поджемовать и все такое. Так родилась идея... гитарного фестиваля, что ли. Правда, было одно ограничение - в “фестивале” могут принять участие не более трех исполнителей. Во-первых, во многих концертных залах установлен регламент - не более трех часов, а во-вторых, три часа “живой” музыки, согласитесь, все-таки тяжеловато для слушателя. Из всех этих задумок и появился “G3”. Если не изменяет память, название придумал мой менеджер Mick. Поначалу проект не пользовался большим спросом. Менеджеры и промоутеры были напуганы одной лишь идеей гитарного соревнования. Тем не менее, мне удалось убедить всех в целесообразности “G3”, а реакция фанов не заставила себя долго ждать”. Вскоре фестиваль G3 из разового мероприятия перерос в ежегодный шоу-марафон с обязательным участием Джо Сатриани и Стива Вая, к которым каждый раз присоединяется новый гитарист: Роберт Фрипп (Robert Fripp), Эрик Джонсон (Eric Johnson), Ингви Мальмстин (Yngwie Malmsteen) и Джон Петруччи (John Petrucci) из группы Dream Theater, а также другие гитаристы. В 1998 году вышел очередной студийный альбом Джо Сатриани "Crystal Planet" (Тор 50 США), после чего продолжились туры G3 по Соединенным Штатам. В 2000 году Джо решился на смелые эксперименты с электронными эффектами в альбоме “Engines of Creation”. Этот альбом, как и почти все его предшественники, претендовал на Grammy в номинации "Лучшее рок-инструментальное исполнение" за песню "Starry Night", однако, как и прежде, Джо не получил награду. Всего за свою карьеру Сатриани становился номинантом Grammy 13 раз. В 2001 году выходит лайв-альбом "Live in San Francisco" с записью концерта Джо Сатриани в Сан Франциско в декабре 2000 года. Годом позже у Джо выходит новый студийный альбом "Strange Beautiful Music". Помимо собственного творчества Сатриани участвовал на альбомах различных исполнителей, среди них: "Radio Free Albemuth" Стюарта Хэмма (Stuart Hamm), “Hey Stoopid" Элиса Купера (Alice Cooper), "All Sides Now" Пэта Мартино (Pat Martino). В 2004 году выходит новый студийный диск "Is There Love in Space?". В двух композициях вокальные партии Сатриани исполнил сам, чего не делал уже 15 лет. Вместе с Джо над этим альбомом работали: неизменный барабанщик Джеф Кампителли (Jeff Campitelli), бас-гитарист Мэт Биссонет (Matt Bissonette), клавишник и гитарист Эрик Кодье (Eric Caudieux). В 2005 году вышел DVD “G3 - Live In Tokyo”. Выступление G3 в Японии, в котором вместе с Джо Сатриани и Стивом Ваем выступил John Petrucсi. В 2006 году вышел одиннадцатый студийный альбом "Super Colossal". Альбом был записан на студии "Studio 21" и частично в Ванкувере (Канада) на студии "Armoury Studios". В частности, в Ванкувере была записана партия скандирующей толпы для композиции "Crowd Chant". В 2008 году вышел 12 сольный альбом Джо "Professor Satchafunkilus and the Musterion of Rock". Скрыть...
Популярные аккорды Joe Satriani:
алфавиту | просмотрам | случайно
  • Intro
    
    
    ------------------------------------------------
    -----------------------------4-----------2------ Repeat 3 times
    ----8-9-8------8-9-8-------6---6-------4---4----
    --9------9---9-------9---6-------6---4-------4--
    ------------------------------------------------
    -7---------7-----------0-----------2------------
    
    ----------------------------------------------------------------------
    -------2-----------4-----------2-----------2--------------------------
    -----4---4-------6---6-------4---4-------3---3------------------------
    ---4-------4---6-------6---4-------4---4-------4----------------------
    ----------------------------------------------------------------------
    -4-----------0-----------2-----------2--------------------------------
    
    
    w/main…
  • E||--------------------------|---------------------|-------------------------|
    B||--------------------------|---------------------|-------------------------|
    G||--------------------------|---------------------|-------------------------|
    D||--6-----------6-----------|--6---------6--------|--6-----------6----------|
    A||--6--7--6-----6--7--6-----|--6--7------7--------|--6--7--6-----6--7--6----|
    E||-----------9-----------9--|---------------------|-----------9-----------9-|
    
    E|--------------------|--------------------------|--------------|
    B|--------------------|--------------------------|--------------|
    G|--------------------|--------------------------|--------------|
    D|-6--6------6--------|--6-----------6-----------|--6---------6-|
    A|-6--9------9--------|--6--7--6-----6--7--6-----|--6--7------7-|
    E|----7------7--------|-----------9-----------9--|--------------|
    
    E|-------------------------|---------------------|-------------------------|
    B|-------------------------|---------------------|-------------------------|
    G|-------------------------|-----4------4--------|-------------------------|
    D|-6--------6-----6--6--6--|--6--6------6--------|--6-----------6----------|
    A|-7--6--6-----6--4--4--4--|--4--2------2--------|--6--7--6-----6--7--6----|
    E|-------------------------|---------------------|-----------9-----------9-|
    
    E|--------------------|--------------------------|--------------|
    B|--------------------|--------------------------|--------------|
    G|--------------------|--------------------------|--------------|
    D|-6---------6--------|--6-----------6-----------|--6--6------6-|
    A|-6--7------7--------|--6--7--6-----6--7--6-----|--6--9------9-|
    E|--------------------|-----------9-----------9--|-----7------7-|
    
    E|-------------------------|---------------------|-------------------------|
    B|-------------------------|---------------------|-------------------------|
    G|-------------------------|---------------------|-------------------------|
    D|-6-----------6-----------|--6---------6--------|--6--------6-----6--6--6-|
    A|-6--7--6-----6--7--6-----|--6--7------7--------|--7--6--6-----6--4--4--4-|
    E|----------9-----------9--|---------------------|-------------------------|
    
    E|-------------|
    B|-------------|
    G|-------------|
    D|-6--4------4-|
    A|-4--2------2-|
    E|----0------0-|
    
    (Overdriven…
  • EI----3--3--1-0-1-0--------------0-----0--1--0---0-------------------I
    BI-1------------------3--3--1--3-----3---------1------3--------------I
    GI-------------------------------------------------------------------I
    DI-------------------------------------------------------------------I
    AI-------------------------------------------------------------------I
    
    EI----3--3--1-0-1-0--------------0-----0--1--0---0-------------------I
    BI-1------------------3--3--1--3-----3---------1------3--------------I
    GI-------------------------------------------------------------------I
    DI-------------------------------------------------------------------I
    AI-------------------------------------------------------------------I
    
    e|----------------------------------------------------------------------------|
    B|----14-14-12-11--12--11------------------11------11--12--11------11---------|
    G|-11----------------------13--13--11--13------13--------------11------13--13-|
    D|----------------------------------------------------------------------------|
    A|----------------------------------------------------------------------------|
    E|----------------------------------------------------------------------------|
    
    e|-------------------------------------------------------------------------|
    B|------14--14--12--11--12--11------------------11------11--12--11------14-|
    G|--11--------------------------13--13--11--13------13--------------11-----|
    D|-------------------------------------------------------------------------|
    A|-------------------------------------------------------------------------|
    E|-------------------------------------------------------------------------|
    
    Music…
  • -||--------------------------|---------------------------|--------------------
    -||---11-11-11-11h13---------|----11-11-11-11h13---------|--------------------
    -||10----------------10-x-10-|-10----------------10-x-10-|-x-12h13-12-v8-10---
    -||--------------------------|---------------------------|--------------------
    -||--------------------------|---------------------------|--------------------
    -||--------------------------|---------------------------|--------------------
    
    
    ------|------------------------||-------------|-------------------------------
    -9----|------------------11----||-------------|----------------16----16-17----
    ---10-|-x-12h13-12-v8-10----10-||-/8-6-8-6----|----17-17-15-13--b-14--b-------
    ------|------------------------||----------v8-|-15--b-------------------------
    ------|------------------------||-------------|-------------------------------
    ------|------------------------||-------------|-------------------------------
    
    
    --------------------------------------------------------------------------|---
    -15-15h17--15-13-v13-15-v15--13-11-13-13-13--13-11-11-13-v13--11----11/13-|---
    --------v------------------------------b--b----------------------10-------|---
    --------------------------------------------------------------------------|---
    --------------------------------------------------------------------------|---
    --------------------------------------------------------------------------|---
    guitar…
  • D5
    E|-----------------------------|-----------------------------|
    B|---------3----------1--------|--5--------3-----------------|
    G|o--------2----------0--------|--2--------0----------------o|
    D|o----------------------------|----------------------------o|
    A|-----------------------------|-----------------------------|
    E|-----------------------------|-----------------------------|
    |…
  • The forgotten (part 1)
    
    Guitar
    
    E||---------------------------------------|
    B||---------------------------------------|
    G||*--12----12----12-------12----12-------|
    D||*--10----10----10-------10----10-------|
    A||------15----15----15-15----15----15-15-|
    E||---------------------------------------|
    
    --------------------------------------|--------------------------------------|
    --------------------------------------|--------------------------------------|
    --13----13----13-------13----13-------|--12----12----12-------12----12-------|
    --------------------------------------|--------------------------------------|
    --13-15-13-15-13-15-15-13-15-13-15-15-|--11-15-11-15-11-15-15-11-15-11-15-15-|
    --------------------------------------|--------------------------------------|
    
    3x
    ---------------------------------------||
    ---------------------------------------||
    --10----10----10-------10----10-------*||
    --------------------------------------*||
    --10-15-10-15-10-15-15-10-15-10-15-15--||
    ---------------------------------------||
    
    3x
    ----------------------------------------||----------------------------------|
    ----------------------------------------||----------------------------------|
    *--------------------------------------*||*--5----5----5-------5----5-------|
    *--10----10----10-------10----10-------*||*----13---13---13-13---13---13-13-|
    ------15----15----15-15----15----15-15--||-----15---15---15-15---15---15-15-|
    ---8-----8-----8--------8-----8---------||---4----4----4-------4----4-------|
    
    2x
    ----------------------------------||----------------------------------------||
    ----------------------------------||----------------------------------------||
    --7----7----7-------7----7-------*||*--------------------------------------*||
    ----13---13---13-13---13---13-13-*||*--10----10----10-------10----10-------*||
    ----15---15---15-15---15---15-15--||------15----15----15-15----15----15-15--||
    --6----6----6-------6----6--------||---8-----8-----8--------8-----8---------||
    
    
    ---------------------------------------|--------------------------------------|
    ---------------------------------------|--------------------------------------|
    *--12----12----12-------12----12-------|--13----13----13-------13----13-------|
    *--10----10----10-------10----10-------|--------------------------------------|
    ------15----15----15-15----15----15-15-|--13-15-13-15-13-15-15-13-15-13-15-15-|
    ---------------------------------------|--------------------------------------|
    
    
    --------------------------------------|---------------------------------------||
    --------------------------------------|---------------------------------------||
    --12----12----12-------12----12-------|--10----10----10-------10----10-------*||
    --------------------------------------|--------------------------------------*||
    --11-15-11-15-11-15-15-11-15-11-15-15-|--10-15-10-15-10-15-15-10-15-10-15-15--||
    --------------------------------------|---------------------------------------||
    
    
    --------------------------------------------|
    --------------------------------------------|
    --12----12-------12----12----12----12-------|
    --10----10-------10----10----10----10-------|
    -----15----15-15----15----15----15----15-15-|
    --------------------------------------------|
    
    --------------------------------------------|
    --------------------------------------------|
    --13----13-------13----13----13----13-------|
    --------------------------------------------|
    --13-15-13-15-15-13-15-13-15-13-15-13-15-15-|
    --------------------------------------------|
    
    
    --------------------------------------------|
    --------------------------------------------|
    --12----12-------12----12----12----12-------|
    --------------------------------------------|
    --11-15-11-15-15-11-15-11-15-11-15-11-15-15-|
    --------------------------------------------|
    
    
    --------------------------------------------|
    --------------------------------------------|
    --10----10-------10----10----10----10-------|
    --------------------------------------------|
    --10-15-10-15-15-10-15-10-15-10-15-10-15-15-|
    --------------------------------------------|
    
    
    --------------------------------------|--------------------------------------|
    --------------------------------------|--------------------------------------|
    --12----12----12-------12----12-------|--13----13----13-------13----13-------|
    --10----10----10-------10----10-------|--------------------------------------|
    -----15----15----15-15----15----15-15-|--13-15-13-15-13-15-15-13-15-13-15-15-|
    --------------------------------------|--------------------------------------|
    
    
    --------------------------------------|--------------------------------------|
    --------------------------------------|--------------------------------------|
    --12----12----12-------12----12-------|--10----10----10-------10----10-------|
    --------------------------------------|--------------------------------------|
    --11-15-11-15-11-15-15-11-15-11-15-15-|--10-15-10-15-10-15-15-10-15-10-15-15-|
    --------------------------------------|--------------------------------------|
    
    
    --------------------------------------|--------------------------------------|
    --------------------------------------|--------------------------------------|
    --------------------------------------|--------------------------------------|
    --10----10----10-------10----10-------|--10----10----10-------10----10-------|
    -----15----15----15-15----15----15-15-|-----15----15----15-15----15----15-15-|
    --8-----8-----8--------8-----8--------|--8-----8-----8--------8-----8--------|
    
    
    --------------------------------------|--------------------------------------|
    --------------------------------------|--------------------------------------|
    --------------------------------------|--------------------------------------|
    --10----10----10-------10----10-------|--10----10----10-------10----10-------|
    -----15----15----15-15----15----15-15-|-----15----15----15-15----15----15-15-|
    --8-----8-----8--------8-----8--------|--8-----8-----8--------8-----8--------|
    
    
    
    ----------------||
    ----------------||
    ----------------||
    --10------------||
    ----------------||
    --8-------------||…
  • h  = hammer on
    p  = pull off
    /  = slide up
      = slide down
    ґ  = bend
    `  = release
    ґ` = bend and release
    '  = pre-bend (stretch the string and then play the note)
    '` = reverse bend (stretch the string, play the note…
  • E|--------------------------------------------|
    B|--------------------------------------------|
    G|--11h9--13--13--11h9------------9~--9-------|
    D|----------------------11--9--11-------11--9-|
    A|--------------------------------------------|
    E|--------------------------------------------|
    
    E|--------------------------------|
    B|--------------------------------|
    G|--11h9--13--13--11h9------------|
    D|-----------------------11/14⁄9~-|
    A|--------------------------------|
    E|--------------------------------|
    
    E|---------------------------------------------------------------------------|
    B|---------------------------------------------------------------------------|
    G|--11h9--13--13--11h9------------9~--9--------------------------------------|
    D|----------------------11--9--11-------11--9--(r)--11/13--9--11--11/13⁄11⁄9-|
    A|---------------------------------------------------------------------------|
    E|---------------------------------------------------------------------------|
    
    E|----------------------------------------------------|
    B|--19p17--21--21--19p17--------------17~--17---------|
    G|------------------------18--16--18-----------18--16-|
    D|----------------------------------------------------|
    A|----------------------------------------------------|
    E|----------------------------------------------------|
    
    E|---------19--19~--21--19~-|
    B|--19p17-------------------|
    G|--------------------------|
    D|--------------------------|
    A|--------------------------|
    E|--------------------------|
    
    E|--------------------------------------------------------------------------|
    B|--19p17--21--21--19p17--------------17~--17----------16-------------------|
    G|------------------------18--16--18-----------18--16------16--18--18h21p18-|
    D|--------------------------------------------------------------------------|
    A|--------------------------------------------------------------------------|
    E|--------------------------------------------------------------------------|
    
    E|------19~------19~-------------------17--16--14-------------|
    B|--17-------17-------16--17--(r)--17--------------17--19~⁄17-|
    G|------------------------------------------------------------|
    D|------------------------------------------------------------|
    A|------------------------------------------------------------|
    E|------------------------------------------------------------|
    
    E|------19~------19-------------------21--19--17--16------------|
    B|--17-------17------16--17--(r)--17------------------19p17h19~-|
    G|--------------------------------------------------------------|
    D|--------------------------------------------------------------|
    A|--------------------------------------------------------------|
    E|--------------------------------------------------------------|
    
    Next…
  • 4/4
    Gtr I
    T T T T T T T T T T T T T T T
    E E E E E E E E E E E E E E E
    ||-----------------------------------------------|
    ||o-----(14)--------------------------------(14)-|
    ||----6-(14)---6-(16)---6-(14)---6-(16)---6-(14)-|
    ||----7--------7-(16)---7-(14)---7-(16)---7------|
    ||o----------------------------------------------|
    ||--5--------5--------5--------5--------5--------|
    
    
    T…
  • p.m.................................
    E|--------------------------------------------------|
    B|--------------------------------------------------|
    G|--4--3--------------------------------------------|
    D|--2--4--6-6---------------------------------------|
    A|--------4-4--4--4--4--4--4-4---4----4--4--4--4--4-|
    E|-----------------------------7--------------------|
    
    lead…
  • E|---------------------------------------15--17--22(24)--19--------------------|
    B|-------------10--10⁄-------1-------3------------------------------1----------|
    G|---9---9------9---9⁄---1---1---1---4--------------------------2---2---2--2/4-|
    D|--10--10-----10--10⁄---3-------3---5--------------------------3-------3--3/5-|
    A|-----------------------------------------------------------------------------|
    E|-----------------------------------------------------------------------------|
    
    E|-----------------------------------------------------------------------------|
    B|--13-----⁄8--8----6---8---8/9----⁄8---6-----13------------6---8---8/9--------|
    G|------------------7---9---9/10---⁄9---7------------12-----7---9---9/10----10-|
    D|-----------------------------------------------------------------------------|
    A|------------------8--10--10/11---⁄10--8-------------------8--10--10/11-------|
    E|-----------------------------------------------------------------------------|
    
    E|-----------------------------------------8-12--------------------------------|
    B|--6h8----5---8--5---------------------10-------------------3/5--3/5--3/5-----|
    G|-------------------5-------------9-12----------5--5--5--5------------------5-|
    D|-----------------------7------10---------------------------3/5--3/5--3/5-----|
    A|-----------------------------------------------------------------------------|
    E|-----------------------------------------------------------------------------|
    
    E|-15--17--22(24)--19----------------------------------------------------------|
    B|-----------------------------------------13-⁄8--8------6---8---8/9----⁄8---6-|
    G|---------------------2---2---2---2---2/4---------------7---9---9/10---⁄9---7-|
    D|---------------------3---3---3---3---3/5-------------------------------------|
    A|-------------------------------------------------------8--10--10/11---⁄10--8-|
    E|-----------------------------------------------------------------------------|
    
    E|------------------------------------------------------------------------1215-|
    B|-13----13-----6---8---8/9----⁄8---6--6h8---5---8--5-------------------13-----|
    G|----12----12--7---9---9/10---⁄9---7------------------5--------------14-------|
    D|----------------------------------------------------------7-------14---------|
    A|--------------8--10--10/11---⁄10--8---------------------------1215-----------|
    E|-----------------------------------------------------------------------------|
    
    E|------------------------------------------------------------------------|
    B|------------------3/5---3/5---3/5---------------------------------------|
    G|--5---5---5---5---------------------5--------2------2------2--/--9---9--|
    D|------------------3/5---3/5---3/5------------3------3------3--/--10--10-|
    A|------------------------------------------------------------------------|
    E|------------------------------------------------------------------------|
    
    E|-------------------10h12--12-----10--8------------10h12--10----8--10---------|
    B|-------10--10---------------------------9----9------------------------8----8-|
    G|-----------------------------------------------------------------------------|
    D|--10-------------------------------------------------------------------------|
    A|-----------------------------------------------------------------------------|
    E|-----------------------------------------------------------------------------|
    
    E|------------------------------8-8---8-8---------------------------|
    B|--------10--10---------8----------8-----8-11-8--------------------|
    G|--8--9-----------8--9--------------------------10-8----10----8----|
    D|----------------------------------------------------10----10---10-|
    A|------------------------------------------------------------------|
    E|------------------------------------------------------------------|
    
    E|---------12---10---8--10----------12---10-----8---3--3⁄----4/6--4/6--4/6---3-|
    B|-10--10-------------------9----9------------------3--3⁄----4/6--4/6--4/6---3-|
    G|-----------------------------------------------------------------------------|
    D|-----------------------------------------------------------------------------|
    A|-----------------------------------------------------------------------------|
    E|-----------------------------------------------------------------------------|
    
    E|--11(13)-8---------------------------------------------------------13--------|
    B|-----------11-8-------------------13⁄8--8--8--6---8--8/9---⁄8---6-----12--12-|
    G|----------------10-8--------------------------7---9--9/10--⁄9---7------------|
    D|---------------------10-8----------------------------------------------------|
    A|--------------------------10-8-10-------------8--10-10/11--⁄10--8------------|
    E|-----------------------------------------------------------------------------|
    
    E|-----------------------------------------------------------------------------|
    B|-6---8---8/9----⁄8---6--6h8----5---8--5------------------------5-----5--4--3-|
    G|-7---9---9/10---⁄9---7-------------------5-----5---5---5---5-----------------|
    D|--------------------------------------------7------------------5-----5--4--3-|
    A|-8--10--10/11---⁄10--8-------------------------------------------------------|
    E|-----------------------------------------------------------------------------|
    
    E|--15--17--22(24)--19---------|
    B|---------------------------8-|
    G|--------------------------7--|
    D|-------------------------5---|
    A|------------------------7----|
    E|-----------------------------|…
  • Intro
    Q=176
    4/4
    Gtr I
    PM----| PM----|
    E S S E E +E E Q W E S S E E +E E Q W
    ||------------------------|----------|-----------------------|-------||
    ||o-----------------------|----------|-----------------------|------o||
    ||------------------------|----------|-----------------------|-------||
    ||----------11-(11)-12----|----------|---------12-(12)-11----|-------||
    ||o----------7--(7)--7----|----------|----------7--(7)--7----|------o||
    ||--0-0-0-0---------------|----------|-0-0-0-0---------------|-------||
    
    
    PM----|
    E…
  • E||---------------------------------------|----------------2----------------||
    B||---------------------------------------|----------------2-----5----------||
    G||*------------4-4-4---------------4-4-4-|------------4-x-----x-4---4--3--*||
    D||*--4-5-4-----2-2-2-4-------4-----2-2-2-|--4-4-4-----2-------------2--2--*||
    A||---4-4-4-2-0-------4h5p4p2-4-2-0-------|--4-5-4-2-0----------------------||
    E||---------------------------------------|------------------3-----2--------||
    
    
    
    ---------------------------------------------|
    ---------------------------------------------|
    -----11-11-11----11-11-11---11-11-11---9-9-9-|
    -----11-11-11----11-11-11---9--9--9----9-9-9-|
    ---------------------------------------------|
    --10----------10----------9----------9-------|
    
    
    
    ----------12----------------------|----------------------------------|
    --------------12------------------|----------------------------------|
    ----9-9-9-----------9-9-9---8-8-8-|----6-6-6---6-6-6---4-4-4---4-4-4-|
    ----9-9-9-----------7-7-7---7-7-7-|----5-5-5---5-5-5---4-4-4---4-4-4-|
    ----------------------------------|----------------------------------|
    --8--------------7--------7-------|--5-------5-------3-------3-------|
    
    
    
    --------------------------|--------------------------|
    ----3-3---3-3---2-2---2-2-|--------------------------|
    ----4-4---4-4---3-3---3-3-|----4-4---4-4---3-3---3-3-|
    --------------------------|----5-5---5-5---4-4---4-4-|
    --------------------------|--------------------------|
    --2-----2-----2-----2-----|--2-----2-----2-----2-----|
    
    
    
    --------------------------------------|----------------2---------------|
    --------------------------------------|----------------2-----5---------|
    ------------4-4-4---------------4-4-4-|------------4-x-----x-4---4--3--|
    --4-5-4-----2-2-2-4-------4-----2-2-2-|--4-4-4-----2-------------2--2--|
    --4-4-4-2-0-------4h5p4p2-4-2-0-------|--4-5-4-2-0---------------------|
    --------------------------------------|------------------3-----2-------|
    
    
    
    --------------------------------------|----------------2---------------|
    --------------------------------------|----------------2-----5---------|
    ------------4-4-4---------------4-4-4-|------------4-x-----x-4---4--3--|
    --4-5-4-----2-2-2-4-------4-----2-2-2-|--4-4-4-----2-------------2--2--|
    --4-4-4-2-0-------4h5p4p2-4-2-0-------|--4-5-4-2-0---------------------|
    --------------------------------------|------------------3-----2-------|
    
    
    
    ---------------------------------------------|
    ---------------------------------------------|
    -----11-11-11----11-11-11---11-11-11---9-9-9-|
    -----11-11-11----11-11-11---9--9--9----9-9-9-|
    ---------------------------------------------|
    --10----------10----------9----------9-------|
    
    
    
    ----------12----------------------|----------------------------------|
    --------------12------------------|----------------------------------|
    ----9-9-9-----------9-9-9---8-8-8-|----6-6-6---6-6-6---4-4-4---4-4-4-|
    ----9-9-9-----------7-7-7---7-7-7-|----5-5-5---5-5-5---4-4-4---4-4-4-|
    ----------------------------------|----------------------------------|
    --8---------------8⁄------7-------|--5-------5-------3-------3-------|
    
    
    
    --------------------------|--------------------------|
    ----3-3---3-3---2-2---2-2-|--------------------------|
    ----4-4---4-4---3-3---3-3-|----4-4---4-4---3-3---3-3-|
    --------------------------|----5-5---5-5---4-4---4-4-|
    --------------------------|--------------------------|
    --2-----2-----2-----2-----|--2-----2-----2-----2-----|
    
    
    
    ----------------------------------|----------------------------------|
    ----12-12---12-12---11-11---11-11-|----------------------------------|
    ----12-12---12-12---11-11---11-11-|----12-12---12-12---11-11---11-11-|
    ----------------------------------|----12-12---12-12---11-11---11-11-|
    ----------7---------------7-------|----------7---------------7-------|
    --0---------------0---------------|--0---------------0---------------|
    
    
    
    ----------------------------------|----------------------------------|
    ----12-12---12-12---11-11---11-11-|----------------------------------|
    ----12-12---12-12---11-11---11-11-|----12-12---12-12---11-11---11-11-|
    ----------------------------------|----9--9----9--9----11-11---11-11-|
    --9-------9-------9-------9-------|--9-------9-------9-------9-------|
    ----------------------------------|----------------------------------|
    
    
    
    ----------------------------------|----------------------------------|
    ----12-12---12-12---11-11---11-11-|----------------------------------|
    ----12-12---12-12---11-11---11-11-|----12-12---12-12---11-11---11-11-|
    ----------------------------------|----12-12---12-12---11-11---11-11-|
    ----------7---------------7-------|----------7---------------7-------|
    --0---------------0---------------|--0---------------0---------------|
    
    
    
    ----------------------------------|------------------------------------|
    ----12-12---12-12---11-11---11-11-|-----14-14----14-14----12-12----12--|
    ----12-12---12-12---11-11---11-11-|-----14-14----14-14----12-12----12--|
    ----------------------------------|------------------------------------|
    --9-------9-------9-------9-------|--10-------10-------10-------10-----|
    ----------------------------------|------------------------------------|
    
    
    
    --------------------------------------|
    --------------------------------------|
    ------------4-4-4---------------4-4-4-|
    --4-5-4-----2-2-2-4-------4-----2-2-2-|
    --4-4-4-2-0-------4h5p4p2-4-2-0-------|
    --------------------------------------|
    
    
    
    -------------------------------------------|
    -------------------------------------------|
    --------------4-----9----------------------|
    --4-4-4-----2-----7-------7-----5-----4r4--|
    --4-5-4-2-0-----5-------5-----2-----4-4----|
    ----------------------3-----0-----2--------|
    
    
    
    --------------------------------------|
    --------------------------------------|
    ------------4-4-4---------------4-4-4-|
    --4-5-4-----2-2-2-4-------4-----2-2-2-|
    --4-4-4-2-0-------4h5p4p2-4-2-0-------|
    --------------------------------------|
    
    
    
    -------------------------------------------|----------------------------|
    -------------------------------------------|--------------3-------------|
    --------------4-----9----------------------|-----------6-----6----------|
    --4-4-4-----2-----7-------7-----5-----4r4--|--------7-----------7-------|
    --4-5-4-2-0-----5-------5-----2-----4-4----|-----5-----------------5----|
    ----------------------3-----0-----2--------|--3-------------------------|
    
    
    
    ----------------------------|------------------7------||
    --------------5-------------|---------------7---------||
    -----------8-----8----------|------------9------------||
    --------9-----------9-------|--------11---------------||
    -----7-----------------7----|-----9-------------------||
    --5-------------------------|--7----------------------||…
  • Intro
    Q=171
    4/4
    Gtr I
    PM--------------| PM--|
    W H Q E E +E E E E E E E E E E E E +E E E E
    |----------|-------------|-------------------|-------------------|
    |----------|-------------|-------------------|-----6-5-(5)-------|
    |----------|-------------|-------------------|-----3-5-(5)-------|
    |----------|-----------5-|-(5)-5-------------|-----3-5-(5)-5-7-3-|
    |----------|-----------5-|-(5)-5-5-5-5-5-5-5-|---3---3-(3)-3-3-3-|
    |----------|-----------3-|-(3)-3-3-3-3-3-3-3-|-6-----------------|
    |-Rhy…
  • ---------------------------------------|-----------------------------------|--
    ---------------------------------------|-----------------------------------|--
    ---------------------------------------|---------8-7-5---------------------|--
    -7--7-7--8-7-5--5-5---5--5-5--5--5-5-5-|-7--7-7---------5-5--5--3-3--3-3-3-|--
    -5--5-5--5-5-5--5-5---3--3-3--3--3-3-3-|-5--5-5--5-5-5--5-5--3--1-1--1-1-1-|--
    ---------------------------------------|-----------------------------------|--
    ***…
  • Intro
    Q=144
    4/4
    Gtr I Gtr II
    E|-8---6-(6)-----|---------------|-----------------|-0-|
    B|-5---7-(7)--8--|-(8)-7---------|-----------------|-0-|
    G|------------5--|-(5)-6---8---5-|-(5)-------------|---|
    D|---------------|---------6---7-|-(7)--8--(8)-5---|---|
    A|---------------|---------------|------6--(6)-7---|---|
    E|---------------|---------------|-----------------|-0-|
    
    E|-------------------------|-------------------------|
    B|-------------------------|-------------------------|
    G|-------------------------|-------------------------|
    D|-x-x-x-x-x-x-x-x-x-x-x-x-|-x-x-x-x-x-x-x-x-x-x-x-x-|
    A|-x-x-x-x-x-x-x-x-x-x-x-x-|-x-x-x-x-x-x-x-x-x-x-x-x-|
    E|-------------------------|-------------------------|
    
    (8=s8)
    Gtrs…
  • E|--------10-----------10------|--------10----------10-------|
    B|-----11----11-----11----11---|-----11----11----11----11----|
    G|--12----------12-------------|--10----------10-------------|
    D|-----------------------------|-----------------------------|
    A|-----------------------------|-----------------------------|
    E|-----------------------------|-----------------------------|
    
    E|-------10----------10------|-------10---------10------|
    B|----11----11----11----11---|----11----11---11----11---|
    G|--8----------8-------------|--8----------8------------|
    D|---------------------------|--------------------------|
    A|---------------------------|--------------------------|
    E|---------------------------|--------------------------|
    
    Play…
  • -------0-------------0-------------0-------------0----------
    -----3---3---------3---3---------6---6---------3---3--------
    ---5-------5-----4-------4-----7-------7-----5-------5------
    -7-------------3-------------6-------------7----------------
    ------------------------------------------------------------
    ------------------------------------------------------------
    
    (Repeat…
  • Intro
    Q=96(16=s16)
    4/4
    Gtr I
    E|---------------------------------|-------------|
    B|---------------------------------|-------------|
    G|---2-2-2---(2)-2-2-2-2-(2)-2-2-2-|---2-2-2-2-2-|
    D|---1-1-1---(1)-1-1-1-1-(1)-1-1-1-|---1-1-1-1-1-|
    A|---------------------------------|-------------|
    E|---------------------------------|-------------|
    |-Rhy…
  • |------------||-----------------|--------------------|----------------------|
    |------------||.----------------|--------------------|----------------------|
    |------------||-----------------|--------2-2p0-------|----2--------0--------|
    |------------||.----------------|--------------------|----------4-----0-----|
    |--0-3p0-----||-5p0--------3h5--|-5~--0---------3p0--|-4-----5--------------|
    |------------||------3--5-------|--------------------|------------------2p0-|
    
    
    |----------------||----------------|-------------------|-------------------|
    |---------------.||----------------|-------------------|-------------------|
    |----------------||----------------|------5p4----------|-------------------|
    |---------------.||----------------|------4----4p0-----|-------------------|
    |-3p0-----0-3p0--||--5p0--------3--|-5p0-----------5p0-|-7p0------5p0------|
    |-----3-5--------||-------3-2~-----|-------------------|-----5-4-----------|
    
    
    |----------------|-------------------------|------------|-------------------|
    |----------------|-------------------------|------------|-------------------|
    |-------------x--|--13--12--11--10--9---8--|-7----------|-------------------|
    |----------2--x--|--12--11--10---9--8---7--|-6----------|-------------------|
    |-7p0---------x--|--14--13--12--11--10--9--|-8---0-3p0--|-5p0--------3h5----|
    |------3p0-------|-------------------------|------------|------3-5~---------|
    
    
    |--------------------|----------------|-------------------|-9⁄8--7----------|
    |--------------------|----------------|-------------------|-9⁄8--7----------|
    |---------2-2p0------|---2p0-----5p0--|--------8--7~------|-----------------|
    |--------------------|----------------|---7h10------------|-----------------|
    |--5~--0--------3p0--|-4------5-------|-9-----------------|-----------------|
    |--------------------|----------------|----------------0--|------------0----|
    
    
    |-9--8⁄7-----------|------------------|--------------------|----------------
    |-9--8⁄7-----------|------------------|--------------------|----------------
    |-9--8⁄7-----------|------------------|-------2-2p0--------|----2-----0-----
    |------------------|------------------|--------------------|--------4---0---
    |----------0--3p0--|-5p0---------3p0--|-5~p0----------3p0--|-4----5---------
    |------------------|------3-5~--------|--------------------|----------------
    
    *harm…
  • Intro riff - 2x
    
    |--------------------------|--------------------------|
    |--------------------------|--------------------------|
    |---------------------9h11-|--------------------------|
    |-9h11-9h11-9h11-9h11-9h11-|-9h11-9h11-9h11-9h11-9----|
    |-9h11-9h11-9h11-9h11-9----|-9h11-9h11-9h11-9h11-9-9--|
    |-9----9----9----9---------|-9----9----9----9------9--|
    
    |--------------------------|--------------|
    |--------------------------|--------------|
    |---------------------9h11-|--------------|
    |-9h11-9h11-9h11-9h11-9h11-|-2-4--7--9----|
    |-9h11-9h11-9h11-9h11-9----|-2-4--7--9----|
    |-9----9----9----9---------|-0-2--5--7----|
    
    
    
    
    The…
  • H P P H P
    E|--2--3--2--0--2----2--3--0--2----3--5--|
    B|--0-----------0----0--------0----0--0--|
    G|---------------------------------------|
    D|---------------------------------------|
    A|---------------------------------------|
    E|---------------------------------------|
    
    E|--2--3--2--2--------5----------7--|
    B|--0--------0-----3----------5-----|
    G|----------------------------------|
    D|------------------------/7--------|
    A|----------------------------------|
    E|----------------------------------|
    
    
    Next…
  • e|-------------------|-------------------|---------------------|
    B|-------------------|-------------------|---------------------|
    G|--9/11-11----------|--9/11-11------9~--|--9/11-11------------|
    D|----------11-7/9~--|----------12p9-----|----------11-7/9~----|
    A|-------------------|-------------------|---------------------|
    E|-------------------|-------------------|---------------------|
    
    e|----------------------|---------------------------------------------------|
    B|----------------------|--------------------12-13-12-----------------------|
    G|--9/11-11---------9~--|--9/11/12/14~-12/14----------14-14/16~-------------|
    D|----------10/12-9-----|---------------------------------------11/12-12~---|
    A|----------------------|---------------------------------------------------|
    E|----------------------|---------------------------------------------------|
    
    e|-------------------------------------------------|-------------------------|
    B|--10/12-12-14-15-14~-1412-14-15-17b(19)-17-17~--|--1410/127/10/12~---------|
    G|-------------------------------------------------|-------------------------|
    D|-------------------------------------------------|-------------------------|
    A|-------------------------------------------------|-------------------------|
    E|-------------------------------------------------|-------------------------|
    
    e|----------------------------------------|-----------------------------|
    B|--7h8p75-7-8-5-7---5-------------------|------------------------------|
    G|------------------7---6-7-4-6/76-42~--|-------------------------------|
    D|----------------------------------------|-----------------------------|
    A|----------------------------------------|--2/4/7/12/14~-1612~---------|
    E|----------------------------------------|-----------------------------|
    
    e|------------------------------------|--------------------------------------|
    B|------------------------------------|--------------------12-13-12----------|
    G|------------------------------------|--9/11/12-12/14~-14----------14-------|
    D|--7/975/754/542/4/542p0h2~--|----------------------------------------------|
    A|------------------------------------|--------------------------------------|
    E|------------------------------------|--------------------------------------|
    
    e|------------------------|--------------------------------------------------|
    B|------------------------|--12-14-15-14-12-14-15-17b(19)--17b(20)~----------|
    G|--14/16~----------------|--------------------------------------------------|
    D|---------11-12/1412~---|---------------------------------------------------|
    A|------------------------|--------------------------------------------------|
    E|------------------------|--------------------------------------------------|
    
    solo....
    e|-----------------------------|---------------------------------------|
    B|--15p14h15~-14-1412-1210~--|-----------8/10-8~-6-8-6-5---------------|
    G|-----------------------------|----7-9-10-----------------7~----------|
    D|-----------------------------|--7------------------------------------|
    A|-----------------------------|---------------------------------------|
    E|-----------------------------|---------------------------------------|
    
    e|-----------------------|---------------------------------------------------|
    B|-----------8/10-10/8~--|-----------8-10/13108--10/13108/10~----------------|
    G|----7-9-10-------------|----7-9-10-----------------------------------------|
    D|--7--------------------|--7------------------------------------------------|
    A|-----------------------|---------------------------------------------------|
    E|-----------------------|---------------------------------------------------|
    
    
    e|--------------------|---------------------10-------------10---------------|
    B|-----------8-10~p8--|----5/6-8/10-13b(15)----10--13b(15)----10--13b(15)---|
    G|----7-9-10----------|--7--------------------------------------------------|
    D|--7-----------------|-----------------------------------------------------|
    A|--------------------|-----------------------------------------------------|
    E|--------------------|-----------------------------------------------------|
    
    e|--10-----------|-10--------------------------------------------------------|
    B|-----13b(15)~--|----10-13--------------------------------------------------|
    G|---------------|----------12b(13)r12-10-12/14-10-75~---6b(7)r6-------------|
    D|---------------|--------------------------------------7---------7-5/7~-----|
    A|---------------|-----------------------------------------------------------|
    E|---------------|-----------------------------------------------------------|
    
    e|----------------------------------------|
    B|----------------------------------------|
    G|--11b(12)r11-9-7------------------------|
    D|-----------------10-9-75-5/72-2~--------|
    A|----------------------------------------|
    E|----------------------------------------|
    
    harmonics.........................................
    e|-----12-------------------------------------------|
    B|--7--------12-------------------------------------|
    G|-------7--------12------------------------12------|
    D|-------------7--------12----------12---7------7---|
    A|------------------7-------12---7------------------|
    E|-----------------------7--------------------------|
    
    e|--------------------------------------------------------------------|
    B|----10--12--12/14--14/15--1514--1412--1210--10/12--12~--------------|
    G|--9-----------------------------------------------------------------|
    D|--------------------------------------------------------------------|
    A|--------------------------------------------------------------------|
    E|--------------------------------------------------------------------|
    
    e|------------------------------|--------------------------------------------|
    B|------------------------------|--------------------------------------------|
    G|--14-12-11/1211--------------|---------------------------------------------|
    D|-----------------1412-12/14--|--1412-97-5/7-7/95---------------------------|
    A|------------------------------|-----------------------75/7/1075/7~---------|
    E|------------------------------|--------------------------------------------|
    
    e|-------------------|--------------------------|----------------------------|
    B|-------------------|--------------------------|----------------------------|
    G|--9/11-11----------|--9/11-11------7/9~-76---|--9/11--11-------------------|
    D|----------11-7/9~--|----------12-9------------|-----------11-7/9~----------|
    A|-------------------|--------------------------|----------------------------|
    E|-------------------|--------------------------|----------------------------|
    
    e|-------------------|------------------------------------|
    B|--9/11-11------9~--|--76/7~--7/9~--9/11~--11/14~--------|
    G|----------12-9-----|------------------------------------|
    D|-------------------|------------------------------------|
    A|-------------------|------------------------------------|
    E|-------------------|------------------------------------|
    
    Some…
  • Backround 1
    E---0--0--0-----4--4-----2--2-------------------------------------------
    B---0--0--0-----5--5-----0--0-------------------------------------------
    G---4--4--4-----4--4-----4--4-------------------------------------------
    D---4--4--4-----4--4-----4--4-------------------------------------------
    A-----------------------------------------------------------------------
    E-----------------------------------------------------------------------
    
    
    Backround…
  • AH
    E||-------------------|-------------------|------------------|
    B||-------------------|-------------------|------------------|
    G||-------------------|-------------------|------------------|
    D||-------------------|-------------------|------------------|
    A||--3----------------|--3----------------|------------------|
    E||-------------------|-------------------|------------------|
    
    AH
    -------------------|------------------|-------------------|------------------|
    -------------------|------------------|-------------------|------------------|
    -------------------|------------------|-------------------|------------------|
    -------------------|------------------|-------------------|------------------|
    --3----------------|------------------|--3~---------------|------------------|
    -------------------|------------------|-------------------|------------------|
    
    
    
    -------------------|------------------|-------------------|------------------|
    -------------------|------------------|-------------------|------------------|
    -------------------|------------------|-------------------|------------------|
    -------------------|------------------|-------------------|------------------|
    --3----------------|------------------|--3~---------------|------------------|
    -------------------|------------------|-------------------|------------------|
    
    
    
    ------------------|------------------|------------------|------------------|
    ------------------|------------------|------------------|------------------|
    ------------------|------------------|------------------|------------------|
    ------------------|------------------|------------------|------------------|
    ------------------|------------------|------------------|------------------|
    ------------------|------------------|------------------|------------------|
    
    
    
    -------------------|------------------|-------------------|
    -------------------|------------------|-------------------|
    -------------------|------------------|-------------------|
    -------------------|------------------|-------------------|
    -------------------|------------------|--3----------------|
    --3----------------|------------------|-------------------|
    
    
    
    ----------------------|---------------------------|------------------------|
    ----------------------|---------------------------|------------------------|
    --------7/9---9----9--|--9/-11----11----11/-12----|--12/14-12~-------------|
    ----------------------|---------------------------|------------------------|
    ----------------------|---------------------------|------------------------|
    ----------------------|---------------------------|------------------------|
    
    
    
    ------------------|--------------------------|------------------------------|
    ------------------|--------------------------|--------------------------12--|
    ------------------|--------7/9-9/-11----9/11-|--9/11-----9/11-11/-12--------|
    ------------------|--------------------------|------------------------------|
    ------------------|--------------------------|------------------------------|
    ------------------|--------------------------|------------------------------|
    
    
    
    ----------------------|------------------|----------------------------|
    --12------------------|------------------|--------11/13-13------13/15-|
    ----------12----------|------------------|----------------------------|
    ----------------------|------------------|----------------------------|
    ----------------------|------------------|----------------------------|
    ----------------------|------------------|----------------------------|
    
    
    ----------------------15--|--15~---------13----18--|
    --15------15--16----------|------------------------|
    --------------------------|------------------------|
    --------------------------|------------------------|
    --------------------------|------------------------|
    --------------------------|------------------------|
    
    
    ------------15p13h----------------|--------------------------|
    ------------------16p13h----------|--------17--17/--19---19--|
    ------------------------15p12h----|--------------------------|
    ------------------------------15--|--------------------------|
    ----------------------------------|--------------------------|
    ----------------------------------|--------------------------|
    
    
    ------------------------19--|--------------------|------------------|
    --19------19--19---20-------|--20~---------------|------------------|
    ----------------------------|--------------------|------------------|
    ----------------------------|--------------------|------------------|
    ----------------------------|--------------------|------------------|
    ----------------------------|--------------------|------------------|
    
    
    --------21----21----22--|--22~---------------|--------22⁄19---19----20--|
    ------------------------|--------------------|--------------------------|
    ------------------------|--------------------|--------------------------|
    ------------------------|--------------------|--------------------------|
    ------------------------|--------------------|--------------------------|
    ------------------------|--------------------|--------------------------|
    
    
    --20~---------------|------------------|------------------|------------------|
    --------------------|------------------|------------------|------------------|
    --------------------|------------------|------------------|------------------|
    --------------------|------------------|------------------|------------------|
    --------------------|------------------|------------------|------------------|
    --------------------|------------------|------------------|------------------|
    
    
    ------------------|------------------|------------------|------------------|
    ------------------|------------------|------------------|------------------|
    ------------------|------------------|------------------|------------------|
    ------------------|------------------|------------------|------------------|
    ------------------|------------------|------------------|------------------|
    ------------------|------------------|------------------|------------------|
    
    
    --20⁄-------------7--|---3h5h7--3h5h7--3h5h7--3⁄2--3-3h5h7--|
    ---------------------|--------------------------------------|
    ---------------------|--------------------------------------|
    ---------------------|--------------------------------------|
    ---------------------|--------------------------------------|
    ---------------------|--------------------------------------|
    
    
    
    --3h5h7----------------------------|
    ----------3h5-7---7p5p3-5---7--3h5h|
    -----------------------------------|
    -----------------------------------|
    -----------------------------------|
    -----------------------------------|
    
    
    ------------------------------------------------------|
    --7-3h5h7p5p3p0h3p0-----------------------------------|
    --------------------7p5p4/5h7h9p7p5-------------4h5h7-|
    ------------------------------------9p7p5⁄4h5h7-------|
    ------------------------------------------------------|
    ------------------------------------------------------|
    
    AH
    ---------------------------------|
    ---5p4---------------------------|
    -------7p5p4⁄2-2r---2~-----------|
    ---------------------------------|
    ---------------------------------|
    ---------------------------2h3h5-|
    
    
    ------------------------------------------------|
    ------------------------------------------------|
    ------------------------------------------------|
    ------------------------------------------------|
    --2h3h5p3p2h3h5/7--------2h3h5p3p2h3h5/7--------|
    -------------------2h3h5------------------2h3h5-|
    
    
    ----------------------------------------------------------|
    ----------------------------------------------------------|
    ----------------------------------------------------------|
    --------------------------------------------------0-2h4h5-|
    --2h3h5p3p2/3h5h7p5p3⁄2h3h5p2/3h5h7p5p3⁄2h3h5p2h3---------|
    ----------------------------------------------------------|
    
    
    
    -------------------------------------------7h8h10p8p7h|
    ------------------------------5h7p5/7h8h10------------|
    --------------4h5h7p5p4h5h7/8-------------------------|
    --4h5/7-4h5h7-----------------------------------------|
    ------------------------------------------------------|
    ------------------------------------------------------|
    
    t…
  • --------------------------------------|---------------------------
    --------------------------------------|---------------------------
    --------------------------------------|---------------------------
    5/7--7---7-----5/7--7--7-------------…
  • Em                                           C           Dadd4
            P.M.  P.M.--------------|        P.M.-----------------|        P.M.----
                             H          sl             sl             sl
    E||--------------------------------------------|-------------------------------
    B||--------------------------------------------|-------------------------------
    G||--------0--------------------0--------------|-----------0--------------0----
    D||-----------5--------5--7--7-----7--9-----9--|--------2-----2--------4-------
    A||-----7--------7--7--------------------7-----|--7--3-----------3--5----------
    E||--0-----------------------------------------|-------------------------------…
  • Intro:
    E|-----------------------------------------------------------------------------|
    B|--------------------------------------------------------------------14-------|
    G|-----------------------------------------11---------------15-----11----11----|
    D|------8-------11----------------13-----9----9---------13-------9-------------|
    A|---6--------9----9----------11-------7--------7----11---------------------13-|
    E|-4--------7--------7------9--------------------------------------------------|
    
    E|-----------------------------------------------------------------------------|
    B|--------------------------------------------------------------------14-------|
    G|-----------------------------------------11---------------15-----11----11----|
    D|------8-------11----------------13-----9----9---------13-------9-------------|
    A|---6--------9----9----------11-------7--------7----11---------------------13-|
    E|-4--------7--------7------9--------------------------------------------------|
    
    E|-------------------------------------------------------------|
    B|-------------------------------------------------------------|
    G|--------13-----11(12)(11)------------------------8(9)(8)-----|
    D|----11--------------------11--------------9--------------9---|
    A|--9--------------------------11--------7-------------------9-|
    E|------------9------------------------5-------7---------------|
    
    E|------------------------------------------------------|
    B|------------------------------------------------------|
    G|-------------5(6)(5)----------------------3(4)(3)-----|
    D|-------6-------------6-------------4--------------4---|
    A|----4------------------6--------2-------------------4-|
    E|--2-------4-------------------0--------2--------------|
    
    E|-------------------------------------|
    B|-------------------------------------|
    G|----------------12(13)(12)-----------|
    D|--------13-----------------13--------|
    A|----11------------------------13--11-|
    E|--9---------11-----------------------|
    
    Riff:
    E|----------------------------------11--------------|
    B|---------14-----------------14-14-----14----------|
    G|------11-----11-11-----------------------13-------|
    D|--11---------------11-----------------------14----|
    A|-------------------------11-----------------------|
    E|--------------------------------------------------|
    
    E|------------------------------------------|
    B|-------12-11-----------------12-11--------|
    G|--------------13--------------------------|
    D|-14-13-----------13-------13--------13----|
    A|-----------------------11--------------13-|
    E|------------------------------------------|
    
    E|-------------------------------11-------|
    B|---------14-----------------14-----14---|
    G|------11-----11----------13-------------|
    D|--11------------11--------------------6-|
    A|----------------------11----------------|
    E|----------------------------------------|
    
    Main…
  • E|--0-----|--0-----|--0-----|--0-----|
    B|--4-----|--3-----|--4-----|--5-----|
    G|--6-----|--5-----|--6-----|--7-----|
    D|--6-----|--5-----|--6-----|--7-----|
    A|--------|--------|--------|--------|
    E|--------|--------|--------|--------|
    
    Play…
  • E|-----------------------------------|-------------------|------------------
    B|-----------------------------------|-------------------|------------------
    G|--12-------------------------------|-(12)--------------|--12--------------
    D|-----------------------------------|-------------------|------------------
    A|--10--10--10--10---10--10--10--10--|--8--8--8--8---10--|--10--10--10--10--
    E|-----------------------------------|-------------------|------------------
    
    
    E------------------|-------------------|-------------------|---------------
    B------------------|-------------------|-------------------|---------------
    G------------------|-(12)--------------|---------------15--|--14--15---12--
    D------------------|-------------------|--12--10---12--12--|--15--15-------
    A--10--10--10--10--|--8--8--8--8---10--|--10--12---13------|---------------
    E------------------|-------------------|-------------------|-----------11--
    
    
    E--------------|-------------------|---------------|-------------------|
    B--------------|-------------------|------13-------|-------------------|
    G--------------|---------------15--|--14-----------|---------------15--|
    D--15----------|--12--10---12--12--|--15--15---17--|--12--10---12--12--|
    A------13------|--10--12---13------|-----------15--|--10--12---13------|
    E----------11--|-------------------|-----------13--|-------------------|
    
    ~trill
    E|---------------------------|-------------------|-----------------|-|
    B|---------------------------|--16--15---13------|--13(15)---------|-|
    G|--14--15---12--------------|---------------15--|---------15--15--|-|
    D|--15--15-------15----------|-------------------|-----------------|-|
    A|-------------------13------|--15-----------13--|---------13--13--|-|
    E|-----------11----------11--|------15---13------|--13-------------|-|
    
    
    E|----------------|------------------------|----------------|--------------|
    B|----------------|------------------------|----------------|------8-------|
    G|------------10--|--9---10---7------------|------------10--|--9-----------|
    D|--7--5---7--7---|--10--10------10--------|--7--5---7--7---|--10--10---12-|
    A|--5--7---8------|------------------8-----|--5--7---8------|-----------10-|
    E|----------------|-----------6---------6--|----------------|-----------8--|
    
    ~trill
    E|----------------|------------------------|----------------|-|
    B|----------------|------------------------|--8(10)---------|-|
    G|------------10--|--9---10---7------------|--------10--10--|-|
    D|--7--5---7--7---|--10--10------10--------|----------------|-|
    A|--5--7---8------|------------------8-----|--------8---8---|-|
    E|----------------|-----------6---------6--|--8-------------|-|
    
    let…
  • INTRO
    
    E|-12-11-10-9--10-9-8-7--8-7-6-5-----------------|
    h|-------------------------------9-8-7-6---------|
    G|---------------------------------------9-8-7-6-|
    D|-----------------------------------------------|
    A|-----------------------------------------------|
    E|-----------------------------------------------|
    
    E|------------------------------------------|
    B|------------------------------------------|
    G|-7-6-5-4--5-4-3-2-------------------------|
    D|------------------6-5-4-3-----------------|
    A|--------------------------7-6-5-4-5-4-3-2-|
    E|------------------------------------------|
    
    E|--------------------------------------------------|
    h|--------------------------------------------------|
    G|--------------------------------------------------|
    D|--------------------------------------------------|
    A|-7-6-5-4--5-4-3-2--7-6-5-4------------------4-5-6-|
    E|--------------------------8-7-6-5-4-5-6-7-8-------|
    
    MAIN…
  • --3-3-3----------1-1-1-------------------------------------------------------
    --------4--------------3-------------------------------4-4-4-1---------------
    --0-0-0--------------------------------0-0-0---1-1-1-0---------------0-0-0---
    --------1--------3-3-3-0---------------------1-----------------------------0-
    -----------------------------------------------------------------------------
    -----------------------------------------------------------------------------
    
    --------1-1-1----------3-3-1-----------3-3-1-----------3-3-1---------------2
    --------------3--------------4-------3-------4-------3------4--------------3
    1-1-1-0------------------------------0---------------0------5------5-------4
    -------------------------------1-1-3-----------1-1-3--------5------4-------5
    -------------------------------------------------------------------6-------5
    ---------------------------------------------------------------------------2
    
    ---------4-4-4-1---------------------------------------------------------------
    -------------------------------------------------------------------------------
    ---------1-1-1---------------1-1-1---------------------1-1-1-------------------
    ---------------3-------------------3-0-0-0-----------1-------3-0-0-0-----------
    -------------------------------------------2-------------------------2---------
    ---------------------------------------------4-4-4-3-------------------4-4-4-3-
    
    2-2-2--------------------------------------------1-1-0-0-3-3-1-1-4-4-3-3-6-6--
    3-3-3-4---1-1-1-----0-0-0-3-3------1-1-1-4-4-3-3------------------------------
    0-0-0-5-0---------------------------------------------------------------------
    ------5-----------------------------------------------------------------------
    ------------------------------------------------------------------------------
    ------------------------------------------------------------------------------
    (elevens,…
  • Fingering notation:  L1 = left index    R1 = right index
                         L4 = left pinky    R4 = right pinky
    
    
    
       L1  L3    R2    R1    Repeat three times   L1   L2     R2     R1   Repeat
    three times  
    
    [------------------------------------------------------------------------------]
    [------------12---------------------------------------------14-----------------]
    [------------------------------------------------------------------------------]
    [------------------12------------------------------10------------14------------]
    [-------9-------------------------------------9--------------------------------]
    [--7---------------------------------------------------------------------------]…
  • E|--12----------7-----------------5--|--12-------------------5--|
    B|------12---------7-----7-----5-----|------12------7-----5-----|
    G|----------12--------7-----5--------|----------12-----5--------|
    D|-----------------------------------|--------------------------|
    A|-----------------------------------|--------------------------|
    E|-----------------------------------|--------------------------|
    
    E|-----------|--------------------------------------|
    B|-----------|--------------------------------------|
    G|-----------|--------------------------------------|
    D|-----------|-----------------5--X--X--7--X--X-----|
    A|-----------|--------7--X--X-----------------------|
    E|------17/--|--0--0--------------------------------|
    
    ~~~~
    E|---------------------------------|
    B|---------------------------------|
    G|-------7----7--------------------|
    D|--/9------------9/7--5-----------|
    A|------------------------7--7-----|
    E|---------------------------------|
    
    ~~~~…
  • 5b7 Pick fret 5, then bend two frets 
    5b7r5 Pick, bend two frets, release bend 
    5h7 Pick fret 5, hammer on fret 7 
    7p5 Pick fret 7, pull of to fret 5 
    (7) The note is still ringing from a previous hit 
    ~~~ Left hand vibrato…
  • Intro
    Q=138
    4/4
    Gtr I
    ⁄7
    ~~~~~~~~~~~~~~~~~
    E|-----|----------|------------|---------------|----------------|
    B|-/10s|=8--------|-(8)--------|---------------|----------------|
    G|-----|----------|------------|---------------|----------------|
    D|-----|----------|------------|---------------|----------------|
    A|-----|----------|------------|-/3s5---(5)----|-(5)--------(5)-|
    E|-----|----------|------------|---------------|----------------|
    |
    |…
  • |-------------------------|
    |-------------------------|
    |-------------------------|
    |-9-9---9-9---9-9---9-9---|
    |-9-9---9-9---9-9---9-9---|
    |-7-7---7-7---7-7---7-7---|
    
    The “growling” part, all with whammy bar:
    |-------------------------|
    |-------------------------|
    |-------------------------|
    |-------------------------|
    |------------------ph-----|
    |-0(2)(0)(1)(0)(2)-2-(5)--|
    
    main…
  • Intro : im not sure about the intro and Riff A
    
    E-0--------0--0-0--0-0--0--0------0-0--0--0-----------0-------]
    B-5h6p5h6--5--5----5----5--5h6p5--5----5--12h13p12h13-12h13p12]
    G-------------------------------------------------------------]
    D-------------------------------------------------------------]
    A-------------------------------------------------------------]
    E-------------------------------------------------------------]
    
    E-----0-----------0------------0------------0-----------------]
    B-h13-12h13p12h13-12h13p12h13--17h18p17h18--17h18p17h18-------]
    G-------------------------------------------------------------]
    D-------------------------------------------------------------]
    A-------------------------------------------------------------]
    E-------------------------------------------------------------]
    
    Riff…
  • Intro: (after drums)
    E|------------------------------------------|
    B|------------------------------------------|
    G|--------------------------4---5---5/7---7-|
    D|----9/10--10⁄9--9⁄7---7---5---5---5/7---7-|
    A|--00----00----00---00---00--00--00---00---|
    E|------------------------------------------|
    
    E|---------------------------------------------|
    B|---------------------------------------------|
    G|-----------------------------6---7---7/9---9-|
    D|----11/12--12⁄11--11⁄9---9---7---7---7/9---9-|
    A|--00-----00-----00----00---00--00--00---00---|
    E|---------------------------------------------|
    
    E|-------------------------------------------------|
    B|-------------------------------------------------|
    G|-------------------------------8---9---9/11---11-|
    D|----12/13--13⁄12--12⁄11---11---9---9---9/11---11-|
    A|--00-----00-----00-----00----00--00--00----00----|
    E|-------------------------------------------------|
    
    E|-------------------------------------------|
    B|-------------------------------------------|
    G|-------------------------------------5-5-5-|
    D|----9/10--10⁄9--9⁄7---7---10⁄9--9⁄7--5-5-5-|
    A|--00----00----00---00---00----00---00------|
    E|-------------------------------------------|
    
    E|------------------------------------------|
    B|------------------------------------------|
    G|--------------------------4---5---5/7---7-|
    D|----9/10--10⁄9--9⁄7---7---5---5---5/7---7-|
    A|--00----00----00---00---00--00--00---00---|
    E|------------------------------------------|
    
    E|------------------------------------------|
    B|------------------------------------------|
    G|--------------------------4---5---5/7---7-|
    D|----9/10--10⁄9--9⁄7---7---5---5---5/7---7-|
    A|--00----00----00---00---00--00--00---00---|
    E|------------------------------------------|
    
    E|---------------------------------------------|
    B|---------------------------------------------|
    G|-----------------------------6---7---7/9---9-|
    D|----11/12--12⁄11--11⁄9---9---7---7---7/9---9-|
    A|--00-----00-----00----00---00--00--00---00---|
    E|---------------------------------------------|
    
    E|------------------------------------------|
    B|------------------------------------------|
    G|--------------------------4---5---5/7---7-|
    D|----9/10--10⁄9--9⁄7---7---5---5---5/7---7-|
    A|--00----00----00---00---00--00--00---00-0-|
    E|------------------------------------------|
    
    Main…
  • ~~~~ P P P P
    E|------------------------------------------------|
    B|------------------------------------------------|
    G|------------------------------------------------|
    D|------------------------------------------------|
    A|------------------------------------------------|
    E|--2-----0----2--0----2---2--0--2--0----0--2--0--|
    
    
    ~~~~…
  • The intro is just a combination of an A5 chord and a D/A
     (Rhy. Fig. 1)
        PM--| PM--|   PM--| PM--|   PM--| PM--|   PM--|
    -5-5-----5-----2-2-----2-----5-5-----5-----5-5-----5-
    -5-5-----5-----3-3-----3-----5-5-----5-----5-5-----5-
    -2-2-----2-----2-2-----2-----2-2-----2-----2-2-----2-
    -2-2-----2-----4-4-----4-----2-2-----2-----2-2-----2-
    -0-0-0-0-0-0-0-0-0-0-0-0-0-0-0-0-0-0-0-0-0-0-0-0-0-0-
    -----------------------------------------------------…
  • Gtr 1
    
    C5 C(b5)
    E||----------------------------||----------------------------||
    B||----------------------------||----------------------------||
    G||*--5--------5--------------*||*--5--------5--------------*||
    D||*--5--------5--------------*||*--4--------4--------------*||
    A||---3--3--3--3--3--3--3--3---||---3--3--3--3--3--3--3--3---||
    E||----------------------------||----------------------------||
    
    
    C5…
  • Part "A"
    E|-------------|---------------------|----------------|------------------------|
    B|-------------|--------/12----------|----------12h13p|-12⁄⁄10//12⁄⁄10---------|
    G|---16-bars---|---------------12----|-14-------------|---------------------12-|
    D|-----rest----|---------------------|----------------|------------------------|
    A|-------------|---------------------|----------------|------------------------|
    E|-------------|---------------------|----------------|------------------------|
    
    E|--------------------------|----------------------|----------|----------------|
    B|--------------------------|---------/12----------|----------|----------------|
    G|-14----p12p10⁄9----10p9⁄7h|-9--------------12----|-14-------|----------------|
    D|--------------------------|----------------------|----------|------------/14-|
    A|--------------------------|----------------------|----------|----------------|
    E|--------------------------|----------------------|----------|----------------|
    
    Part…
  • Intro:
    h p p h p p
    
    E|---------------------------------------------------------------------------|
    B|---------------------------------------------------------------------------|
    G|---------------------------------------------------------------------------|
    D:2--4-5-4-2--4--2-----------------------------------------------------2~~~--|
    A|------------------4--------------------2--4-5-4-2--4--2------------------4-|
    E|---------------------0-----1--2--3--4--------------------4--3--2--0--------|
    
    E|----------------------------------------------------------------------------|
    B|----------------------------------------------------------------------------|
    G|-----------------------------------------------------------------------9~~~-|
    D|---2--4-5-4-2--4--2---------------------------------------------------------|
    A|---------------------4-------------------2--4-5-4-2--4--2-------------------|
    E|------------------------0----1--2--3--4--------------------4--3--2--0-------|
    
    E|----------------------------------------------------------------------------|
    B|----------------------------------------------------------------------------|
    G:~-------------------------------------------------------------------------9-|
    D|-11---2--4-5-4-2--4--2------------------------------------------------------|
    A|------------------------4-------------------2--4-5-4-2--4--2----------------|
    E|---------------------------0----1--2--3--4--------------------4--3--2--0----|
    
    E|-------------------------------------------------------------------------|
    B|-------------------------------------------------------------------------|
    G:~~~----------------------------------------------------------------------|
    D|---11-⁄2--4-5-4-2--4--2--------------------------------------------------|
    A|-------------------------4------------------2--4-5-4-2--4--2-------------|
    E|----------------------------0---1--2--3--4--------------------4--3--2--0-|
    
    Main…
  • Intro(or rhythm): Distortion
    E|-----------------------------------------------|
    B|-----------------------------------------------|
    G|-----------------------------------------------|
    D|-----------------------------------------------|
    A|-----------------------------------------------|
    E|--7---8------5---7------------7---8------5---7-|
    
    Intro…
  • |----------------------------------------------------------7--------------|
    |-------------------------------------------------------7-----------------|
    |--9b(11)r9-7b(8)----9--7---------7~~------------9b(11)-------------------|
    |-----------------9-------9--7--9-----------------------------------------|
    |-------------------------------------------------------------------------|
    |-------------------------------------------------------------------------|
    
    |-------------------------------------------------------------------------|
    |--10-------------------------------10------------------------------------|
    |------9b(10)r9b(10)r9-7-----9b(11)----9b(11)r9-7---9-7-------------------|
    |------------------------9-7----------------------9-----9-7---------------|
    |-----------------------------------------------------------9-8-75-------|
    |-------------------------------------------------------------------------|
    
    |-----------------------------------------------7---10--------------------|
    |------------------------------------------7-10---7----7-10b(12)----------|
    |-------------------------------------7-------------------------9b(10)-7--|
    |--------------------7---7---7---7-9--------------------------------------|
    |----x-5-/7-5----9---9---9---9------------------------------------------|
    |-------------------------------------------------------------------------|
    
    |-------------------------------------------------------------------------|
    |-------------------------------------------------------------------------|
    |-11--13-----11--13-----11--13--11--11--13------13--11------14--11--13--11|
    |-12-----12--12-----12--12----------12------12----------12----------------|
    |-------------------------------------------------------------------------|
    |-------------------------------------------------------------------------|
    note:…
  • Tuning: EADGBE
    
    e|--------------------------------------------------------------------8--------|
    B|-------------5----------5-----------------5-----------5---5----8-10---10-10--|
    G|---5---5---7----7-5-5h7---------5---5---7-------5---5---7----9---------------|
    D|-7---7---7----------------7---7---7---7-------7---7--------------------------|
    A|-----------------------------------------------------------------------------|
    E|-----------------------------------------------------------------------------|
    
    e|-----------------------------------------------------------------------------|
    B|-10h13p108--/10--------------5----------5-----------------------------5---5-|
    G|--------------------5---5---7----7-5-5h7------4-4b2-------------5---5---7---|
    D|------------------7---7---7----------------7---------2-2/5-----7---7---------|
    A|-----------------------------------------------------------------------------|
    E|-----------------------------------------------------------------------------|
    
    e|--------8--------------------------------------------------------------------|
    B|---8-10---10-10-----8---8---8h10---------------------------------------------|
    G|-9----------------9---9---9-------7h9-7h9-7-9--9-10-9h10p97-9-75---7h9-7h9-|
    D|-----------------------------------------------------------------------------|
    A|-----------------------------------------------------------------------------|
    E|-----------------------------------------------------------------------------|
    
    e|----------------------------------------------------------------15-13-12-10--|
    B|-----------------------------------------------------------------------------|
    G|-7-9--10h12~~~-10-9h10p97-7/9----7h9-7h9-7-9--------7---6-------------------|
    D|-----------------------------------------------7-7-7-------7-----------------|
    A|-----------------------------------------------------------------------------|
    E|-----------------------------------------------------------------------------|
    
    e|-7b-p5-3-/5-|
    B|-------------|
    G|-------------|
    D|-------------|
    A|-------------|
    E|-------------|
    
    e|------------------7-7-7-7-7-8--8--8-7-8--8-8-8-8--10--10-10--10-7-8---8--7-7--|
    B|------------------7-7-7-7-7-7--7--7-7-7--7-7-7-7--7---7--7---7--7-7---7--7-10-|
    G|------------------9-9-9-9-----------------------------------------------------|
    D|------------------------------------------------------------------------------|
    A|-7-7-----7-7-7-7--------------------------------------------------------------|
    E|-5-5-5-3-5-5-5-5--------------------------------------------------------------|
    
    e|-/20-19-15h17p15--------------------------------------------------------------|
    B|------------------------------------------------------------------------------|
    G|-------------------9h10-9--7-5/7--7-9-10-9-7h9p75-/7-5-/7------9h10p97----|
    D|------------------------------------------------------------------------------|
    A|------------------------------------------------------------------------------|
    E|------------------------------------------------------------------------------|
    
    e|-------------------10-12-13-10-12-10-12-------/15-----------------------------|
    B|----------10h12h13----------------------13-10-----10h13p108------------------|
    G|-10h12h14---------------------------------------------------------------------|
    D|-------------------------------------------------------------7532/3/5/75--|
    A|------------------------------------------------------------------------------|
    E|------------------------------------------------------------------------------|
    
    e|------------------------------------------------------13----12-----------------|
    B|------------10-8-10--/15-13------------------------15----15----15-13-------13--|
    G|-7h9-9b-7-9-----------------15p14-12-14-14b--12-14-------------------14-12-----|
    D|-------------------------------------------------------------------------------|
    A|-------------------------------------------------------------------------------|
    E|-------------------------------------------------------------------------------|
    
    e|-------------------------------------------------------------------------------|
    B|-------------------------------------------------------------------------------|
    G|-14-------12-------------------------------------------------------------------|
    D|----1210----10h12p10---------------------------------------------------7h8h10-|
    A|----------------------10h12p10-8-10-87-8-7-5-3-/5-/7-7~~~---5--7h8h10-------|
    E|-------------------------------------------------------------------------------|
    
    e|----------------------------------10-12-10----10-12-12b-10----10----------/15--|
    B|-------------------------10h12h13----------13--------------13----13-10---------|
    G|--------7h9-9~~~--9h10h12----------------------------------------------12------|
    D|-7h8h10------------------------------------------------------------------------|
    A|-------------------------------------------------------------------------------|
    E|-------------------------------------------------------------------------------|
    
    e|------------------------------------------------------------------------10-----|
    B|------------------------------------------------------------13-10----------10--|
    G|-10h12p10--------------------------------9b----------12b-----------13-12-------|
    D|----------10h12p10-----------------10h12----12-10-12---------------------------|
    A|-------------------10---8h10p87-8---------------------------------------------|
    E|-------------------------------------------------------------------------------|
    
    e|--------------------------------------------------------------------15b-13-----|
    B|-13-10--------------------------------------------15---------13-15-------------|
    G|-------13-12-10----12-10-----------------------------12b--14-------------------|
    D|----------------12-------12-10------------10-/12-------------------------------|
    A|-------------------------------12-11-10----------------------------------------|
    E|-------------------------------------------------------------------------------|
    
    e|--------------------------15b---18-15-15h17p15--------------------------------|
    B|--------15---------13-15-------------------------------------------------------|
    G|-----------12b--14-------------------------------------------------------------|
    D|-10-/12-----------------------------------------15--17-14--15-12--1410--12-10-|
    A|-------------------------------------------------------------------------------|
    E|-------------------------------------------------------------------------------|
    
    e|-------------------------|
    B|-------------------------|
    G|-------------------------|
    D|-8-7-5-3-/5-/7-5----|
    A|-------------------------|
    E|-------------------------|
    
    e|---------------------------------------------------------------------------|
    B|---------------------------------------------------------------------------|
    G|-5-5--------7-7-7--7-7--7-5---4-4-4--4-4--4-5--7--7-7--7-7--7-5---7-7--7---|
    D|-7-7---7----7-7-7--7-7--7-7---5-5-5--5-5--5-5--7--7-7--7-7--7-7---7-7--7---|
    A|-7-7---7-7-----------------------------------------------------------------|
    E|-5---3-5-5-----------------------------------------------------------------|
    
    e|-------------|
    B|-------------|
    G|-7-4-5-2-4-2-|
    D|-------------|
    A|-------------|
    E|-------------|
    
    e|--------------------------------------------------------------------8--------|
    B|-------------5----------5-----------------5-----------5---5----8-10---10-10--|
    G|---5---5---7----7-5-5h7---------5---5---7-------5---5---7----9---------------|
    D|-7---7---7----------------7---7---7---7-------7---7--------------------------|
    A|-----------------------------------------------------------------------------|
    E|-----------------------------------------------------------------------------|
    
    e|-10h12p10-8h10p8-----------------------------------------------------------|
    B|-----------------8h10p8----------------------------------------------------|
    G|------------------------7h9p7-7/9-5--7h9-7h9-7-9--9-10-9h10p97-9-75-----|
    D|---------------------------------------------------------------------------|
    A|---------------------------------------------------------------------------|
    E|---------------------------------------------------------------------------|
    
    e|---------------------------------------------------------------------------|
    B|---------------------------------------------------------------------------|
    G|-7h9-7h9-7-9--10h12~~~-10-9h10p97-7/9----7h9-7h9-7-9---------7---6--------|
    D|--------------------------------------------------------7-7-7--------7-----|
    A|---------------------------------------------------------------------------|
    E|---------------------------------------------------------------------------|
    
    e|-5------------------------------10b-8-10-/12-------------------------------|
    B|---8-5----------------------------------------10-12b-p10-8-10-8-----------|
    G|-------7-5---7-5---5-------7-------------------------------------9---7h9---|
    D|-----------7-----7---7-5-7-------------------------------------------------|
    A|---------------------------------------------------------------------------|
    E|---------------------------------------------------------------------------|
    
    e|--------------------------------------------------------------15-13-12-10--|
    B|---------------------------------------------------------------------------|
    G|-7h9-7-9--10h12~~~-10-9h10p97-/9--7h9-7h9-7-9--------7--6-----------------|
    D|------------------------------------------------7-7-7------7---------------|
    A|---------------------------------------------------------------------------|
    E|---------------------------------------------------------------------------|
    
    e|-7b-p5-3-/5--|
    B|--------------|
    G|--------------|
    D|--------------|
    A|--------------|
    E|--------------|
    
    |…
  • Piste 1
                                                                             
    E||----------------------------------|------17--------------------------|
    B||------------------------------17--|--15----------17------------------|
    G||----------------------14--14------|----------14----------14----------|
    D||--------------14--12--------------|------------------12----------14--|
    A||------12--12----------------------|--------------------------12------|
    E||--10------------------------------|----------------------------------|…
  • standard tuning
    b=bend
    ~=pause
    
    e--------------------------------------12-12b-10--------------------------------
    b----------10-13-10-13-10b~---10-12-13-----------13-10b~---10-8-10--10-8-10b----
    g-------------------------------------------------------------------------------
    d-------------------------------------------------------------------------------
    a-------------------------------------------------------------------------------
    e-------------------------------------------------------------------------------
    
    e--------------------------------15-13-12------12-----------12-15-12---12-15-12-
    b--10-13-10-13-10b~---10-12-13-------------15------13b~-------------------------
    g-------------------------------------------------------------------------------
    d-------------------------------------------------------------------------------
    a-------------------------------------------------------------------------------
    e-------------------------------------------------------------------------------
    
    and…
  • e|------------------------------------------------------|
    B|------------------------------------------------------|
    G|--4h5-4h5-5p4-4-2-0-0-0-0-0h2-4h5-5/7-7-4-0-0-0-0-0h4-|
    D|------------------------------------------------------|
    A|------------------------------------------------------|
    E|------------------------------------------------------|
    
    
    -------------------------------------------------------|
    -------------------------------------------------------|
    --0-0-0-4-4h5-5-5-4-2-0-0-0-0h2-4h5-4h5-5h7-7-4-0-0-0--|
    -------------------------------------------------------|
    -------------------------------------------------------|
    -------------------------------------------------------|
    
    
    -------------------------------------------------------|
    -------------------------------------------------------|
    --0-4-0-0-0-0-4-4h5-4h5-5p4-2-0-0-0-0h2-4h5-5/7-7-4-0--|
    -------------------------------------------------------|
    -------------------------------------------------------|
    -------------------------------------------------------|
    
    
    -------------------------------------------------------|
    -------------------------------------5-----5-5h6p5p3---|
    -0-0-0-4-0-0-0-4-2-----2---5-2---5-----5-5-------------|
    -------------------2-2---2-----2---2-------------------|
    -------------------------------------------------------|
    -------------------------------------------------------|
    
    
    --------------------------------------------------------|
    ------------------------------------------5-----5h6p5p3-|
    --5p4-0-0-0-4h5/7-7-7-7-9-5-0-0-4h5-0-7-0---0-7---------|
    --------------------------------------------------------|
    --------------------------------------------------------|
    --------------------------------------------------------|
    
    
    -------------------------------------------------------|
    -------------------------------------------------------|
    --2-5-5-5-5h7-7/9-9-9-9-11-4-----2---5-2---5---2-----2-|
    -----------------------------2-2---2-----2---2---2-2---|
    -------------------------------------------------------|
    -------------------------------------------------------|
    
    
    -------------------------------------------------------|
    -------------------------------------------------------|
    ----5-2------------------------------------------------|
    --2----------------------------------------------------|
    -------------------------------------------------------|
    -------------------------------------------------------|…
  • E||-----------------------|------------------|------------------------|
    B||-----------------------|------------------|------------------------|
    G||------9--8~-----9------|------------------|--------8r--------------|
    D||--------------------11~|------------------|-------------11--9--11--|
    A||-----------------------|------------------|------------------------|
    E||-----------------------|------------------|------------------------|…
  • Intro: Gmaj7  Gmaj7  F#m11  F#m11
           F#m11  Badd4
           F#m11  Badd4 Badd4   
    
    Chorus:                                                          
    Em7     A
    Em7  A A  Dmaj7sus2  Bmadd4 Bmadd4   
    
    Bridge:
    Gsus2…
  • Gtr1
    |-------|-------|-------|-------|-------|-------|-------|
    |-------|-------|-------|-------|-------|-------|-------|
    |-------|-------|-------|-------|-------|-------|-------|
    |---2---|-------|---5---|---3---|---2---|-------|---5---|
    |-0-----|---3---|-3-----|-------|-0-----|---3---|-3-----|
    |-------|-1-----|-------|-4-----|-------|-1-----|-------|
    
    Gtr1
    |---------|------|------|-------|-------|-------|------|
    |--N.H.---|------|------|-------|-------|-------|------|
    |------|------|------|-------|-------|-------|------|
    |---------|---2--|------|---5---|---3---|---2---|------|
    |---------|-0----|---3--|-3-----|-------|-0-----|---3--|
    |-3-------|------|-1----|-------|-4-----|-------|-1----|
    |Gtr2…
  • T=left hand tap
    t=right hand tap
    
    
        w/disto.delay.phaser
    [||--------------13--------------|----------------17----------------|
    [||-----------11----11-----------|-------------15----15-------------|
    [||---------8----------8---------|----------12----------17----------|
    [||------12--------------12------|-------15----------------15-------|
    [||---10--------------------10---|----13----------------------13----|
    [||-8--------------------------8-|-11----------------------------11-|…
  • E-2------2----------------|
    B||--------2--5------4----3------2----|--------2--5------4----|
    G|4------4----|--------4--4-----------4------4----|
    D||-----4-----------------------------|-----4-----------------|
    A||--2--------------------|--0--------------------|--2--------------------|
    E-------------------------|…
  • P.M.       P.M.      P.M.      P.M.                       
    ||--------------------------------------------------------------------
    ||--------------------------------------------------------------------
    ||*--11------------9----------7---------------------------------------
    ||*--9----------------------------------9------------7--------7-------
    ||-----------------10---------9---------7---0-------------------------
    ||-----------0----------0---------0------------------8--------8-------…
  • Tuning:e b g d a e
    This part start at 1:10 and finish in the end of the song.This is only the guitar part.
    This song uses a lot of keyboard efects.  
    
    
    e|---------------------------------------------------------------------------|
    B|---------------------------------------------------------------------------|
    G|-----4------2h4------4---------2---------4-------2h4------4--------2-------|…
  • Standard tuning (EADGBE).
    Definitions of notation at bottom.
    
    
    Guitar 1, Rythm, Distorted (but not too much)
    
    (0:06)
     
    E|----------------------------|
    B|----------------------------|
    G|----------------------------|
    D|--7/8---7/5---7/8--7/5------|
    A|--5/6---5/3---5/6--5/3------|
    E|----------------------------|
    
    
    
    (0:31)
    
    E|-------------------------|
    B|-------------------------|
    G|-------------------------|
    D|-------------------------|
    A|--7/8---7/5---7/8--7/5---|
    E|--5/6---5/3---5/6--5/3---|
    
    
    (0:37)
    Riff…
Наверх