Аккорды «Johann Sebastian Bach»

Johann Sebastian Bach
Иоганн Себастьян Бах - великий немецкий композитор XVIII века. Прошло уже более двухсот пятидесяти лет со дня смерти Баха, а интерес к его музыке всё возрастает. При жизни композитор не получил заслуженного признания как сочинитель, но был известен как исполнитель и, особенно, как импровизатор. Интерес к музыке Баха возник почти сто лет спустя после его смерти: в 1829 году под управлением немецкого композитора Мендельсона было публично исполнено величайшее произведение Баха - "Страсти по Матфею".… Читать полностью... Иоганн Себастьян Бах - великий немецкий композитор XVIII века. Прошло уже более двухсот пятидесяти лет со дня смерти Баха, а интерес к его музыке всё возрастает. При жизни композитор не получил заслуженного признания как сочинитель, но был известен как исполнитель и, особенно, как импровизатор. Интерес к музыке Баха возник почти сто лет спустя после его смерти: в 1829 году под управлением немецкого композитора Мендельсона было публично исполнено величайшее произведение Баха - "Страсти по Матфею". Впервые - в Германии - было издано полное собрание баховских сочинений. А музыканты всего мира играют музыку Баха, поражаясь её красоте и вдохновению, мастерству и совершенству. "Не ручей! - Море должно быть ему имя", - сказал о Бахе великий Бетховен. Предки Баха издавна славились своей музыкальностью. Известно, что прапрадед композитора, булочник по профессии, играл на цитре. Из рода Бахов выходили флейтисты, трубачи, органисты, скрипачи. В конце концов каждого музыканта в Германии начали называть Бахом и каждого Баха - музыкантом. Иоганн Себастьян Бах родился в 1685 году в небольшом немецком городке Эйзенахе. Первые навыки игры на скрипке он получил от отца, скрипача и городского музыканта. Мальчик имел превосходный голос (сопрано) и пел в хоре городской школы. Никто не сомневался в его будущей профессии: маленький Бах должен был стать музыкантом. Девяти лет ребенок остался сиротой. Его воспитателем стал старший брат, служивший церковным органистом в городе Ордруфе. Брат определил мальчика в гимназию и продолжал обучать музыке. Но то был нечуткий музыкант. Однообразно и скучно шли занятия. Для пытливого десятилетнего мальчика это было мучительно. Поэтому он стремился к самообразованию. Узнав, что у брата в запертом шкафу хранится тетрадь с произведениями прославленных композиторов, мальчик тайком по ночам доставал эту тетрадь и переписывал ноты при лунном свете. Шесть месяцев длилась эта утомительная работа, она сильно повредила зрение будущего композитора. И каково же было огорчение ребенка, когда брат застал его однажды за этим занятием и отобрал уже переписанные ноты. В пятнадцать лет Иоганн Себастьян решил начать самостоятельную жизнь и переехал в Люнебург. В 1703 году он закончил гимназию и получил право поступить в университет. Но Баху не пришлось использовать это право, так как нужно было добывать средства к существованию. В течение своей жизни Бах несколько раз переезжал из города в город, меняя место работы. Почти каждый раз причина оказывалась одна и та же - неудовлетворительные условия работы, унизительное, зависимое положение. Но как бы ни была неблагоприятна обстановка, его никогда не покидало стремление к новым знаниям, к совершенствованию. С неутомимой энергией он постоянно изучал музыку не только немецких, но также итальянских и французских композиторов. Не упускал Бах случая и лично познакомиться с выдающимися музыкантами, изучить манеру их исполнения. Однажды, не имея на поездку денег, молодой Бах отправился в другой город пешком, чтобы послушать игру прославленного органиста Букстехуде. Так же неуклонно отстаивал композитор своё отношение к творчеству, свои взгляды на музыку. Вопреки преклонению придворного общества перед иностранной музыкой, Бах с особой любовью изучал и широко использовал в своих произведениях народные немецкие песни и танцы. Прекрасно познав музыку композиторов других стран, он не стал им слепо подражать. Обширные и глубокие знания помогали ему совершенствовать и отшлифовывать свое композиторское мастерство. Талант Себастьяна Баха не ограничивался этой областью. Он был лучшим среди своих современников исполнителем на органе и клавесине. И если как композитор Бах при жизни не получил признания, то в импровизациях за органом его мастерство было непревзойдённым. Это вынуждены были признать даже его соперники. Рассказывают, что Бах был приглашён в Дрезден, чтобы участвовать в состязании со знаменитым в то время французским органистом и клавесинистом Луи Маршаном. Накануне состоялось предварительное знакомство музыкантов, оба они играли на клавесине. В ту же ночь Маршан поспешно уехал, признав тем самым неоспоримое превосходство Баха. В другой раз, в городе Касселе, Бах изумил своих слушателей, исполнив соло на педали органа. Такой успех не вскружил Баху голову, он всегда оставался очень скромным и трудолюбивым человеком. На вопрос, как он достиг такого совершенства, композитор ответил: "Мне пришлось усердно заниматься, кто будет так же усерден, достигнет того же". С 1708 года Бах обосновался в Веймаре. Здесь он служил придворным музыкантом и городским органистом. В веймарский период композитор создал свои лучшие органные сочинения. Среди них известнейшая Токката и фуга ре минор, знаменитая Пассакалия до минор. Эти произведения значительны и глубоки по содержанию, грандиозны по своим масштабам. В 1717 году Бах с семьёй переехал в Кётен. При дворе принца Кётенского, куда он был приглашён, не было органа. Бах писал, главным образом, клавирную и оркестровую музыку. В обязанности композитора входило руководить небольшим оркестром, аккомпанировать пению принца и развлекать его игрой на клавесине. Без труда справляясь со своими обязанностями, Бах всё свободное время отдавал творчеству. Созданные в это время произведения для клавира представляют собою вторую после органных сочинений вершину в его творчестве. В Кётене были написаны двухголосные и трехголосные инвенции (трехголосные инвенции Бах называл "синфониями"). Эти пьесы композитор предназначал для занятий со своим старшим сыном Вильгельмом Фридеманом. Педагогические цели руководили Бахом и при создании сюит - "Французских" и "Английских". В Кётене Бах закончил также 24 прелюдии и фуги, составившие первый том большого труда под названием "Хорошо темперированный клавир". В этот же период была написана и знаменитая "Хроматическая фантазия и фуга" ре минор. В наше время инвенции и сюиты Баха стали обязательными пьесами в программах музыкальных школ, а прелюдии и фуги "Хорошо темперированного клавира" - в училищах и консерваториях. Предназначенные композитором для педагогической цели, эти произведения представляют, кроме того, интерес и для зрелого музыканта. Поэтому пьесы Баха для клавира, начиная со сравнительно нетрудных инвенции и кончая сложнейшей "Хроматической фантазией и фугой", можно услышать на концертах и по радио в исполнении лучших пианистов мира. Из Кётена в 1723 году Бах переехал в Лейпциг, где остался до конца своей жизни. Здесь он занял должность кантора (руководителя хора) певческой школы при церкви Св. Фомы. Бах был обязан обслуживать силами школы главные церкви города и нести ответственность за состояние и качество церковной музыки. Ему пришлось принять стеснительные для себя условия. Наряду с обязанностями преподавателя, воспитателя и композитора были и такие предписания: "Не выезжать из города без разрешения господина бургомистра". Как и прежде, ограничивались его творческие возможности. Бах должен был сочинять для церкви такую музыку, которая бы "не была слишком продолжительной, а также... опероподобной, но чтобы возбуждала в слушателях благоговение". Но Бах, как всегда, жертвуя многим, никогда не поступался главным - своими художественными убеждениями. На протяжении всей жизни он создавал произведения, поразительные по своему глубокому содержанию и внутреннему богатству. Так было и на этот раз. В Лейпциге Бах создал свои лучшие вокально-инструментальные композиции: большую часть кантат (всего Бахом написано около 250 кантат), "Страсти по Иоанну", "Страсти по Матфею", Мессу си минор. "Страсти", или "пассионы" по Иоанну и Матфею - это повествование о страданиях и смерти Иисуса Христа в описании евангелистов Иоанна и Матфея. Месса близка по содержанию "Страстям". В прошлом и месса и "страсти" представляли собою хоровые песнопения в католической церкви. У Баха эти произведения выходят далеко за рамки церковной службы. Месса и "Страсти" Баха - это монументальные произведения концертного характера. В их исполнении участвуют солисты, хор, оркестр, орган. По своему художественному значению кантаты, "Страсти" и Месса представляют собою третью, самую высокую вершину творчества композитора. Церковное начальство было явно недовольно музыкой Баха. Как и в прежние годы, её находили слишком яркой, красочной, человечной. И действительно, музыка Баха не отвечала, а скорее противоречила строгой церковной обстановке, настроению отрешенности от всего земного. Наряду с крупными вокально-инструментальными произведениями Бах продолжал писать музыку для клавира. Почти в одно время с Мессой был написан знаменитый "Итальянский концерт". Позже Бах закончил второй том "Хорошо темперированного клавира", куда вошли новые 24 прелюдии и фуги. Помимо огромной творческой работы и службы в церковной школе, Бах принимал активное участие в деятельности "Музыкальной коллегии" города. Это было общество любителей музыки, которое устраивало концерты светской, а не церковной музыки для жителей города. С большим успехом Бах выступал в концертах "Музыкальной коллегии" как солист и дирижер. Специально для концертов общества он написал много оркестровых, клавирных и вокальных произведений светского характера. Но основная работа Баха - руководителя школы певчих - приносила ему одни огорчения и неприятности. Средства, отпускавшиеся церковью на школу, были ничтожны, и певчие мальчики голодали, были плохо одеты. Невысок был и уровень их музыкальных способностей. Певчих нередко набирали, не считаясь с мнением Баха. Оркестр школы был более чем скромен: четыре трубы и четыре скрипки! Все прошения о помощи школе, поданные Бахом городскому начальству, оставались без внимания. Отвечать же за всё приходилось кантору. Единственной отрадой были по-прежнему творчество, семья. Подросшие сыновья - Вильгельм Фридеман, Филипп Эммануил, Иоганн Христиан - оказались талантливыми музыкантами. Еще при жизни отца они стали известными композиторами. Большой музыкальностью отличалась Анна Магдалена Бах, вторая жена композитора. Она обладала прекрасным слухом и красивым, сильным сопрано. Хорошо пела и старшая дочь Баха. Для своей семьи Бах сочинял вокальные и инструментальные ансамбли. Последние годы жизни композитора были омрачены серьёзной болезнью глаз. После неудачной операции Бах ослеп. Но и тогда он продолжал сочинять, диктуя свои произведения для записи. Смерть Баха осталась почти не замеченной музыкальной общественностью. О нем скоро забыли. Печально сложилась судьба жены и младшей дочери Баха. Анна Магдалена умерла десять лет спустя в доме презрения для бедных. Младшая дочь Регина влачила нищенское существование. В последние годы её тяжелой жизни ей помогал Бетховен. Умер Бах 28 июля 1750 года. Он один из тех редких и прекрасных людей, кто мог записывать Божественный свет. Скрыть...
Популярные аккорды Johann Sebastian Bach:
алфавиту | просмотрам | случайно
  • Обозначения:
    '='  1/16
    -.-.-.-.-  указывает на то, что нота должна звучать пока
               не кончится линия
    
    Размер: 3/4
    (Часть I)
        |     |     |       |     |     |       |     |     |
    e|--------1--0--------|-------------------|--------------------|
    B|--------------3--2--|-3-----------------|--------------------|
    G|--2-----------------|-------2-----3-.-.-|-------0--3--2--0---|
    D|--0-.-.-.-.-.-2-.-.-|-3-.-.-.-.-.-5-.-.-|----2---------------|
    A|--------------------|-------------------|-4-----------0-.-.-.|
    E|--------------------|-------------------|--------------------|…
  • (part #1)
    ---|---|---|---|---|---|---|---|---|---|---|---|---|---|---|---|
    E -------------|---------------|---------------|---------------|
    B -5---5-3-5---|---1---3-0-1---|-----------0---|---1-0-1-3-1-3-|
    G -5---4---0---|---2-----------|---0---2-------|---------------|
    D…
  • E|-17--15--17---------15--13--12-------------|
    B|--------------------------------15--14--15-|
    G|-------------------------------------------|
    D|-------------------------------------------|
    A|-------------------------------------------|
    D|-------------------------------------------|
    
    E|----------------------------------------|
    B|-10--8--10------------------------------|
    G|--------------------9----10-------------|
    D|-------------------------------11----12-|
    A|----------------------------------------|
    D|----------------------------------------|
    
    E|----------------------------------------|
    B|----------------------------------------|
    G|----------------------------------------|
    D|----------------------------------------|
    A|-12--10--12--------10--8--7-------------|
    D|-----------------------------12--11--12-|
    
    E|-------------------------------------------|
    B|-------------------------------------------|
    G|-----------------------------------6-----9-|
    D|---------------------5-----8---------------|
    A|-------4-----7-----------------------------|
    D|-0-----------------------------------------|
    
    E|-2-----3----0----2-------|
    B|-3-----------------------|
    G|-2---------------------6-|
    D|-0-----------------------|
    A|-------------------------|
    D|-------------------------|
    
    E|--------------------------------------------------------|
    B|------------------------------------6--8--5--6--8--5--6-|
    G|-7--9--6--7--9--6--7--9--6--7---9-----------------------|
    D|--------------------------------------------------------|
    A|--------------------------------------------------------|
    D|--------------------------------------------------------|
    
    E|-------------|
    B|-8--5--6---8-|
    G|-------------|
    D|-------------|
    A|-------------|
    D|-------------|
    
    E|---------------------------------------------|
    B|-10--11--8--10--11--8--10--11--8--10------14-|
    G|---------------------------------------------|
    D|---------------------------------------------|
    A|---------------------------------------------|
    D|---------------------------------------------|
    
    E|---------------------------------------------|
    B|-15--17--14--15--17--14--15--17--14--15---17-|
    G|---------------------------------------------|
    D|---------------------------------------------|
    A|---------------------------------------------|
    D|---------------------------------------------|
    
    E|-13--15--12--13--15--12--13--15--12--13---15-|
    B|---------------------------------------------|
    G|---------------------------------------------|
    D|---------------------------------------------|
    A|---------------------------------------------|
    D|---------------------------------------------|
    
    E|-17--18--15--17--18--15--17--18--15---17----17-|
    B|-----------------------------------------------|
    G|-----------------------------------------------|
    D|-----------------------------------------------|
    A|-----------------------------------------------|
    D|-----------------------------------------------|
    
    E|-15--18------15--18----------17----------17-----|
    B|---------17----------17--18------15--18------15-|
    G|------------------------------------------------|
    D|------------------------------------------------|
    A|------------------------------------------------|
    D|------------------------------------------------|
    
    E|-----15----------15-----------------------------|
    B|-17----------17----------15--18------15--18-----|
    G|---------17----------17----------15----------15-|
    D|------------------------------------------------|
    A|------------------------------------------------|
    D|------------------------------------------------|
    
    E|------------------------------------------------|
    B|-----17----------17----------15----------15-----|
    G|-17------14--17------14--15------12--15------12-|
    D|------------------------------------------------|
    A|------------------------------------------------|
    D|------------------------------------------------|
    
    E|----------------------------------------------|
    B|-----13----------13----------11---------11----|
    G|-14----------14------10--12------9--12------9-|
    D|---------15-----------------------------------|
    A|----------------------------------------------|
    D|----------------------------------------------|
    
    E|----------------------------------------|
    B|-----10---------10--------8--------8----|
    G|-10------7--10------7--9-----6--9-----6-|
    D|----------------------------------------|
    A|----------------------------------------|
    D|----------------------------------------|
    
    E|-----------6-|
    B|-----------8-|
    G|-----------6-|
    D|-----------0-|
    A|-------------|
    E|-0-----------|
    
    E|-18--17--15---------------------------------|
    B|-------------18--17--15---------------------|
    G|-------------------------18--16--18--14--18-|
    D|--------------------------------------------|
    A|--------------------------------------------|
    D|--------------------------------------------|
    
    E|-----15-13-15-13-15-13-15-13-12-|
    B|-17-----------------------------|
    G|--------------------------------|
    D|--------------------------------|
    A|--------------------------------|
    D|--------------------------------|
    
    E|-5-|
    B|-6-|
    G|-7-|
    D|-7-|
    A|-5-|
    D|---|
    
    E|-------------------------15-----|
    B|-15--17--18--15--17--18------17-|
    G|--------------------------------|
    D|--------------------------------|
    A|--------------------------------|
    D|--------------------------------|
    
    E|-----15--17------15--17--18--15--17-|
    B|-18----------18---------------------|
    G|------------------------------------|
    D|------------------------------------|
    A|------------------------------------|
    D|------------------------------------|
    
    E|-----15---------------------|
    B|-18------17--18--15--17--14-|
    G|----------------------------|
    D|----------------------------|
    A|----------------------------|
    D|----------------------------|
    
    E|------------------------------------|
    B|-15---------------------------------|
    G|------14--15--12--14------12--------|
    D|---------------------15------14--15-|
    A|------------------------------------|
    D|------------------------------------|
    
    E|----------------------------|
    B|----------------------------|
    G|------12--------------------|
    D|-12------14--15--12--14--11-|
    A|----------------------------|
    D|----------------------------|
    
    E|------------------------------------|
    B|------------------------------------|
    G|------------------------------------|
    D|-12---7---8---5---7-------5---------|
    A|----------------------8-------7---8-|
    D|------------------------------------|
    
    E|---------------------------|
    B|---------------------------|
    G|---------------------------|
    D|-----5---------------------|
    A|-5-------7---8---5---7---4-|
    D|---------------------------|
    
    E|-------------18--------------17---------|
    B|---------18------18------17------17-----|
    G|-----15--------------14--------------12-|
    D|----------------------------------------|
    A|-5--------------------------------------|
    D|----------------------------------------|
    
    E|-----15------------------17------|
    B|-15------15------14--16----------|
    G|-------------14------------------|
    D|---------------------------------|
    A|-------------------------------5-|
    D|---------------------------------|
    
    E|---------------------------|
    B|---------------------------|
    G|-3-----------2-----------0-|
    D|-3-----------2-----------0-|
    A|-------0-------------------|
    D|-------------------5-------|
    
    E|-0------------18--------------17---------|
    B|-2--------18------18------17------17-----|
    G|-2----15--------------14--------------12-|
    D|-2---------------------------------------|
    A|-0---------------------------------------|
    D|-----------------------------------------|
    
    E|-----15------------------17------|
    B|-15------15------14--16----------|
    G|-------------14------------------|
    D|---------------------------------|
    A|-------------------------------5-|
    D|---------------------------------|
    
    E|---------------------------|
    B|---------------------------|
    G|-3-----------2-----------0-|
    D|-3-----------2-----------0-|
    A|-------0-------------------|
    D|-------------------5-------|
    
    E|-0------------------------------------------|
    B|-2------------------------------------------|
    G|-2---14--12---------------------------------|
    D|-2-----------15--14--12---------------------|
    A|-0-----------------------16--14--16--12--14-|
    D|--------------------------------------------|
    
    E|----------------------------|
    B|----------------------------|
    G|-----------------12--14--12-|
    D|-----12--14--15-------------|
    A|-16-------------------------|
    D|----------------------------|
    
    E|----------------------------|
    B|-------------------------14-|
    G|---------------------14-----|
    D|-15--14--15--12--15---------|
    A|----------------------------|
    D|----------------------------|
    
    E|------------------------------15--17--18-|
    B|-15-----------14--15--17--18-------------|
    G|------14--16-----------------------------|
    D|-----------------------------------------|
    A|-----------------------------------------|
    D|-----------------------------------------|
    
    E|-------------------------------------0-|
    B|-------------------------------------2-|
    G|-------3-----------2-----------0-----2-|
    D|-------3-----------2-----------0-----2-|
    A|-5-----------0-----------------------0-|
    D|-------------------------5-------------|
    
    E|---------18-----|
    B|-----18------18-|
    G|-15-------------|
    D|----------------|
    A|----------------|
    D|----------------|
    
    E|---------17--------------15-----------------|
    B|-----17------17------15------15------14--16-|
    G|-14--------------12--------------14---------|
    D|--------------------------------------------|
    A|--------------------------------------------|
    D|--------------------------------------------|
    
    E|-17-----------------------------0---4-|
    B|--------------------------------2---3-|
    G|---------3-------2--------0-----2---4-|
    D|---------3-------2--------0-----2---3-|
    A|-----5-------0------------------0-----|
    D|----------------------5---------------|
    
    E|-5--------------------------15---18-|
    B|-5----------------14---17-----------|
    G|-5------16---14---------------------|
    D|-5----------------------------------|
    A|-5----------------------------------|
    D|-5----------------------------------|
    
    E|-17--15----------------------|
    B|---------18--17--18--17--15--|
    G|-----------------------------|
    D|-----------------------------|
    A|-----------------------------|
    D|-----------------------------|
    
    E|------------------------------------|
    B|-14--15-----------------------------|
    G|---------17--15--14--12-------------|
    D|-------------------------15--14--12-|
    A|------------------------------------|
    D|------------------------------------|
    
    E|-3----------------0--------0-|
    B|-2----------------2--------3-|
    G|-3----------------2--------2-|
    D|-2----------------2--------3-|
    A|------------------0--------0-|
    D|-----------------------------|
    
    E|-3----------------------------------------|
    B|-3-------------5--------------------------|
    G|-3-------------6--------------------------|
    D|-5-------------5--------------------------|
    A|---------------0--------------------------|
    D|-----7--5--------------14--15--12--14--11-|
    
    E|-----------------------|
    B|-----------------------|
    G|-----------------------|
    D|-----------------------|
    A|-----------------------|
    D|-12--9--11--8--9--7--8-|
    
    E|---------0----1----1----0-|
    B|---------2----3----3----3-|
    G|---------2----2----2----2-|
    D|---------2----0----0----0-|
    A|---------0--------------0-|
    D|-6--7-------------------0-|
    
    E|-0----3----1----0----1-|
    B|-2-------------------3-|
    G|-2-------------------2-|
    D|-2-------------------0-|
    A|-0-------------------0-|
    D|---------------------0-|…
  • E|--------|-----------------------|-----------------------|
    B|--------|--3--------------0--2--|--3--------------0--2--|
    G|*--2----|-------2---------------|-------2---------------|
    D|*-------|--0----5----4----2-----|--0----5----4----2-----|
    A|--------|-----------------------|-----------------------|
    E|--------|-----------------------|-----------------------|
    
    E|----0--2--3--5--3--2--0-|-2-------------2--0-|-2-------------|
    B|-3----------------------|------3-------------|----3------0---|
    G|------------------------|--------------------|-------------2-|
    D|-4-----0----------------|------0-----0--0----|----0---0--0---|
    A|-------------4-----0----|---------4----------|------4--------|
    E|------------------------|--------------------|---------------|
    
    E|-----0-----------|-------------------|-----------------------|
    B|-0---------3-2-0-|-------3--0--------|------------2-----2--5-|
    G|---1-------------|-2---------------2-|-2-------2-----2-------|
    D|-----0---0---0---|----4-----0---2----|------2----------------|
    A|-------4---------|-4-----------------|-0----0-----0-----0----|
    E|-----------------|-------------------|-----------------------|
    
    E|--5---------------||
    B|------------------||
    G|------------2----*||
    D|-------2---------*||
    A|--0---------------||
    E|------------------||
    
    E|--------|--5--------------------|--5----0---------2--4--|
    B|---5----|-------5---------7--9--|-----------------------|
    G|*-------|-------7----6----------|-----------------------|
    D|*-------|--7--------------9-----|--7----0---------------|
    A|--------|-----------------------|------------4----2-----|
    E|--------|-----------------------|-----------------------|
    
    E|-5--3--2--0--2--3--0-|-2---------------|------0--2--3--------|
    B|---------------------|-----3-------0-1-|-0-3-----------0-2-3-|
    G|---------------------|-----------2-----|-0-------------------|
    D|---------------------|-0---0-2-4---0---|---------------------|
    A|-0--2-----4-----0----|-----------------|---------------------|
    E|---------------------|-----------------|-3----------0----3---|
    
    E|--------2--3--5-----------|-----3--7--5⁄-3--2--0-----|
    B|--2--5-----------2/-3--5--|--3--------------------3--|
    G|--2-----------------3-----|--4-----0-----------0-----|
    D|--------------------------|--------------2-----------|
    A|--0-----------------------|--------------------------|
    E|--------------2-----------|--------------------------|
    
    E|--------------------------|--------------------0-----|
    B|--2-----------------3-----|--0--------------0-----0--|
    G|--2-----2--------------2--|-----2--0-----0-----------|
    D|-----------5--4--2--4-----|-----------4--------------|
    A|-----0-----------------5--|--------------------------|
    E|--------------------------|--3-----------------3-----|
    
    E|-------------2--3-|-5-----2--0------|------------2-----2--5⁄-|
    B|-2-----2-3-5------|----3-------3--2-|-3-------3-----3--------|
    G|---2-4------------|-----------------|------2-----------------|
    D|------------------|-----------------|-0----0-----0-----0-----|
    A|-0----------------|----2-------0----|------------------------|
    E|-------------3----|-2-----3---------|------------------------|
    
    E|--10---------------||
    B|-------------3-----||
    G|--------2---------*||
    D|--0---------------*||
    A|-------------------||
    E|-------------------||
    
    E|--10---------------||
    B|-------------------||
    G|------------(7)---*||
    D|--0---(7)---------*||
    A|-------------------||
    E|-------------------||…
  • 0
      E|---------4-------|-5p4-------2-------2-------4-|
    2 B|-0---------------|---2-----------5-------------|
    / G|-----------------|---2-------------------------|
    2 D|-2---------------|-----------------------------|
      A|-----------------|-----------------------------|…
  • E||-----------------------0-----|-----3--2--3-----------------|
    B||--0--------0--3--1--1-----3--|--3-----------3--0--------0--|
    G||-----0--2--------------------|--------------------0--2-----|
    D||-----------------------------|-----------------------------|
    A||-----------------------------|-----------2-----------------|
    D||--5--------4--------2--------|--5-----------------5--------|
    
    E|--------0--------------------|-----------------------------|
    B|--1--3-----3-----0-----0-----|--------------------1--0-----|
    G|--------------5-----------0--|-----0--2--------2--------2--|
    D|--2--------0--------7--------|--4--------0--4--------------|
    A|-----------------------------|-----------------------------|
    D|-----------5--------5--------|--0--------0--------0--------|
    
    E|-----------------------0-----|-----3--2--3-----------------|
    B|--0--------0--3--1--1-----3--|--3-----------3--0--------0--|
    G|-----0--2--------------------|--------------------0--2-----|
    D|-----------------------------|-----------------------------|
    A|-----------------------------|-----------2-----------------|
    D|--5--------4--------2--------|--5-----------------5--------|…
  • E|-----10----------------------|------10--9--9----9-12-9-10----|
    B|-12---12---12----------------|----12-12-12-12-11----------12-|
    G|----------11----11---11------|--11---------------------------|
    D|-------------------12---12-9-|-------------------------------|
    
    E|-----10-------------------------|---------------7----------|
    B|--12----12---12-----------------|--------------------------|
    G|-----------11----11---11--------|--7-6-7--7-6-7---7-7p9--6-|
    D|--------------------12---12-9---|--------------------------|
    
    E|--------------10--------------|----5-4-4-----7------------|
    B|--7-6-7--7-6-7--7-7p9--6------|---7-7-7-7-6-9-9-10-9-10-9-|
    G|------------------------------|--6------------------------|
    D|------------------------------|---------------------------|
    
    E|------------7------9-----10------10-9-7-9--------------------|
    B|--7-10-7-6-7--7-6-7--7-6-7--7-6-7---------10-9-7-10--9p10--7-|
    G|-------------------------------------------------------------|
    D|-------------------------------------------------------------|
    
    E|---5-----------------------5--------|
    B|--7-7-7---------------5-4-7-8-7-8-5-|
    G|-------6-6-6-------5-4--------------|
    D|----------7-7-4---------------------|
    
    E|---7-------------------------------------|
    B|--8-8-5-8-5-5------7-5-5---5-8-5-7-5-7-5-|
    G|-----------6-6----7-7-7-7-6--------------|
    D|---------------7-------------------------|
    
    E|----------------------7-------7-5-5-------------|
    B|---7-----8-----10----------------8-7-5--7-5p7---|
    G|--7-7-6-7-7-6-7--7-6-7-7-6-7----------7-------7-|
    D|------------------------------------------------|
    
    E|-----------10-----------|-------------9------------|
    B|--7-7--7-7----7-7p8-----|--------------------------|
    G|---9----9-----------9---|--9--9---9--9---9-9p11----|
    D|------------------------|---12-----12-----------12-|
    
    E|-----10------------------------------------|
    B|--12--12-10-8--12-10-8-----8---------------|
    G|-----------------------11-9-11-9-----------|
    D|---------------------------------12-11-9-8-|
    A|-------------------------------------------|
    
    E|----------------------------|
    B|----------------------------|
    G|---------------9------------|
    D|--------9--8-11--12-11-12-9-|
    A|-9-10-9---------------------|
    
    E|--------------------------------------------|
    B|---------------------12---------------------|
    G|-----------9-11---11-----11--9--------------|
    D|--9-11-12-------12--------------12-11-12--9-|…
  • E||---0-----0-----0-----0-----|--0--5-----------------------|
      B||---1-----1-----1-----1-----|--1----6-3---0-1-0-----------|
    4 G||*--0-----0-----2-----2-----|--2--------5-----0----2-0----|
    / D||*--------------------------|-----3---4---0---0------0----|
    4…
  • E|-------5-----------------|-------5-----------------|
    B|-----6---6---6-----------|-----6---6---6-----------|
    G|---7-------7---7---7---7-|---7-------7---7---7---7-|
    D|-0---------------7-------|-0---------------7-------|
    A|---------------------8---|---------------------8---|
    E|-------------------------|-------------------------|
    
    E|-------6-----------------|-------6-----------------|
    B|-----8---8---8-----------|-----8---8---8-----------|
    G|---7-------7---7---7---7-|---7-------7---7---7---7-|
    D|-0---------------8---5---|-0---------------8---5---|
    A|-------------------------|-------------------------|
    E|-------------------------|-------------------------|
    
    E|-------3-----------------|-------3-----------------|
    B|-----5---5---5-----2---2-|-----5---5---5-----2---2-|
    G|---6-------6---6-3-------|---6-------6---6-3-------|
    D|-0-------------------5---|-0-------------------5---|
    A|-------------------------|-------------------------|
    E|-------------------------|-------------------------|
    
    E|-------1-----------------|-------1-----------------|
    B|-----3---3---3-----------|-----3---3---3-----------|
    G|---2-------2---2---2---2-|---2-------2---2---2---2-|
    D|-0---------------3---0---|-----------------3---0---|
    A|-------------------------|-3-----------------------|
    E|-------------------------|-------------------------|
    
    E|-------1-----------------|-------1-----------------|
    B|-----3---3---3-----------|-----3---3---3-----------|
    G|---2-------2---2---2---2-|---2-------2---2---2---2-|
    D|-----------------3---0---|-----------------3---0---|
    A|-1-----------------------|-0-----------------------|
    E|-------------------------|-------------------------|
    
    E|-------1-----------------|-------1-----------------|
    B|-----3---3---3-----------|-----3---3---3-----0---0-|
    G|---4-------4---4---4---4-|---4-------4---4-1-------|
    D|-----------------3---0---|---------------------2---|
    A|-------------------------|-------------------------|
    E|-4-----------------------|-4-----------------------|
    
    E|-------0-----------------|-------0-----------------|
    B|-----1---1---1-----------|-----1---1---1-----------|
    G|---4-------4---4---4---4-|---2-------2---2---2---2-|
    D|-----------------2-------|-------------------------|
    A|-0-------------------3---|-0---------------3---0---|
    E|-------------------------|-------------------------|
    
    E|-------5-----------------|-------5-----------------|
    B|-----5---5---5-----1---1-|-----6---6---6-----------|
    G|---5-------5---5-2-------|---4-------4---4---4---4-|
    D|---------------------3---|-0---------------0-------|
    A|-------------------------|---------------------2---|
    E|-1-----------------------|-------------------------|
    
    E|-------4-----------------|-------4-----------------|
    B|-----3---3---3-----------|-----3---3---3-----------|
    G|---4-------4---4---4---4-|---4-------4---4---4---4-|
    D|-----------------2-------|-----------------2-------|
    A|---------------------2---|---------------------2---|
    E|-0-----------------------|-0-----------------------|
    
    E|-------5-----------------|-------7-----------------|
    B|-----5---5---5-----------|-----9---9---9-----------|
    G|---5-------5---5---5---5-|---7-------7---7---7---7-|
    D|-------------------------|---------------------0---|
    A|-----------------7-------|-----------------8-------|
    E|-0-------------------8---|-0-----------------------|
    
    E|-------8-----------------|-------10----------------|
    B|-----10--10--10----------|-----9---9---9-----------|
    G|---9-------9---9---9---9-|---9-------9---9---9---9-|
    D|-----------------7-------|-----------------9-------|
    A|---------------------7---|---------------------11--|
    E|-0-----------------------|-0-----------------------|
    
    E|-------8-----------------|-------7-----------------|
    B|-----10--10--10----------|-----6---6---6-----------|
    G|---8-------8---8---8---8-|---7-------7---7---7---7-|
    D|-----------------7-------|-----------------6-------|
    A|---------------------8---|---------------------7---|
    E|-0-----------------------|-0-----------------------|
    
    E|-------5-----------------|-------5-----------------|
    B|-----7---7---7-----------|-----3---3---3-----------|
    G|---5-------5---5---5---5-|---4-------4---4---4---4-|
    D|-----------------4-------|-----------------3---0---|
    A|---------------------6---|-------------------------|
    E|-0-----------------------|-0-----------------------|
    
    E|-------4-----------------|-------2-----------------|
    B|-----3---3---3-----------|-----1---1---1-----------|
    G|---4-------4---4---4---4-|---2-------2---2---2---2-|
    D|-----------------2-------|-----------------1-------|
    A|---------------------2---|---------------------3---|
    E|-0-----------------------|-0-----------------------|
    
    E|-------1-----------------|-------0-----------------|
    B|-----0---0---0-----------|-----1---1---1-----------|
    G|---1-------1---1---1---1-|---2-------2---2---2-----|
    D|-----------------0-------|-----------------------2-|
    A|---------------------2---|-----------------3---0---|
    E|-0-----------------------|-0-----------------------|
    
    E|-------------------------|-------------------------|
    B|-------3-----------------|-------3-----------------|
    G|-----4---4---4-----2---2-|-----4---4---4-----1---1-|
    D|---7-------7---7-3---0---|---6-------6---6-2-------|
    A|-------------------------|---------------------2---|
    E|-0-----------------------|-0-----------------------|
    
    E|-------------------------|-------------------------|
    B|-------3-----------------|-------3-2---2-----------|
    G|-----4---4---4-----1---1-|-----4-----2---2---2---2-|
    D|---6-------6---6-3---0---|---7-------------2-------|
    A|-0-----------------------|-0-------------------4---|
    E|-------------------------|-------------------------|
    
    E|-------4-----------------|-------7-----------------|
    B|-----3---3---3-----------|-----9---9---9-----------|
    G|---4-------4---4---4---4-|---7-------7---7---7---7-|
    D|-----------------3---0---|---------------------0---|
    A|-0-----------------------|-0---------------8-------|
    E|-------------------------|-------------------------|
    
    E|-------5-----------------|-------3-----------------|
    B|-----5---5---5-----------|-----5---5---5-----2---2-|
    G|---6-------6---6---6---6-|---6-------6---6-3---0---|
    D|-----------------7-------|-------------------------|
    A|-0-------------------7---|-0-----------------------|
    E|-------------------------|-------------------------|
    
    E|-------1-----------------|-------1-----------------|
    B|-----3---3---3-----------|-----3---3---3-----------|
    G|---2-------2---2---2---2-|---1-------1---1---1---1-|
    D|-----------------3---0---|-----------------3---0---|
    A|-0-----------------------|-0-----------------------|
    E|-------------------------|-------------------------|
    
    E|-------1-----------------|-------0-------0---------|
    B|-----3---3---3-----------|-----2---2---2--/6---9---|
    G|---1-------1---1---1---1-|---2-------2-------7-----|
    D|-----------------3---0---|-------------------------|
    A|-0-----------------------|-0-----------------------|
    E|-------------------------|-------------------------|
    
    E|-5-|
    B|-5-|
    G|-6-|
    D|---|
    A|-0-|
    E|---|…
  • E|--1--------------------------1----------------------|
    B|----------------------------------------------------|
    G|----------------------------------------------------|
    D|-----1--0--1-----1--0--1--------1--0--1-----1--0--1-|
    A|--3-----------3--------------3-----------3----------|
    E|----------------------------------------------------|
    
    2
    E|----------------------------------------------------|
    B|----------------------------------------------------|
    G|--1--------------------------1----------------------|
    D|-----3--2--3-----3--2--3--------3--2--3-----3--2--3-|
    A|--3-----------3--------------3-----------3----------|
    E|----------------------------------------------------|
    
    3
    E|-----------------------------------------------------|
    B|---0-------------------------0-----------------------|
    G|-----------------------------------------------------|
    D|------3--1--3--0--3--1--3--------3--1--3--0--3--1--3-|
    A|---3-------------------------3-----------------------|
    E|-----------------------------------------------------|
    
    4
    E|----------------------------------------------------|
    B|---1-------------------------1----------------------|
    G|------0-----0-----0-----0--------0-----0-----0----0-|
    D|---------3-----1-----3--------------3-----1-----3---|
    A|---3-------------------------3----------------------|
    E|----------------------------------------------------|
    
    5(Баре…
  • E|--------------------------------------------------|
    B|-15-----------------------------15-------15----14-|
    G|----14----14-----------------14-------------------|
    D|-------16--------16-14-17-16-------16-14----14----|
    A|--------------17----------------------------------|
    E|--------------------------------------------------|
    
    E|-------------14-17-16--19-17-------17----17----16-|
    B|-15----15-17-----------------17-------------------|
    G|----14--------------------------18----16----16----|
    D|--------------------------------------------------|
    A|--------------------------------------------------|
    E|--------------------------------------------------|
    
    E|-17-----------------------------------------------|
    B|----17-------17-19-17-19-20-17--------------------|
    G|-------18-19-------------------------18-19-18--19-|
    D|-------------------------------19-21--------------|
    A|--------------------------------------------------|
    E|--------------------------------------------------|
    
    E|-------------------------------14-15-14-----------|
    B|-17----------17-------------17----------17-15-14--|
    G|----19-18-19----19-18-16-15-----------------------|
    D|--------------------------------------------------|
    A|--------------------------------------------------|
    E|--------------------------------------------------|
    
    E|----14--------------------14-17-------14-15-14-15-|
    B|-15----15-14-15-17--15-17-------16-17-------------|
    G|--------------------------------------------------|
    D|--------------------------------------------------|
    A|--------------------------------------------------|
    E|--------------------------------------------------|
    
    E|-17----------17----------------------14-15--17-14-|
    B|----13-12-13----13-12-------14-16-17--------------|
    G|----------------------14-16-----------------------|
    D|--------------------------------------------------|
    A|--------------------------------------------------|
    E|--------------------------------------------------|
    
    E|-15-------------------15-14-------------------14-|
    B|----17----15-14-17----------15----------15-------|
    G|-------16----------14----------14-17-16----12----|
    D|-------------------------------------------------|
    A|-------------------------------------------------|
    E|-------------------------------------------------|
    
    E|-12-------------------12-------------12-14-15-12-|
    B|----14----12-11-14-------15-12-14-15-------------|
    G|-------13----------11----------------------------|
    D|-------------------------------------------------|
    A|-------------------------------------------------|
    E|-------------------------------------------------|
    
    E|-----------||
    B|-15~-------||
    G|-----------||
    D|-----------||
    A|-----------||
    E|-----------||…
  • Размер: 4/4
    Начало всем известное,играется довольно несложно:
    
    E|---------------|-----------------|-----------------|
    B|-0---0---0---0-|---0---0---0---0-|---0---0---0---0-|
    G|---2---0-------|-----------------|-0---------------|
    D|-----------4---|-2---1---2---4---|-------------1---|
    A|---------------|-----------------|-----2---4-------|
    E|---------------|-----------------|-----------------|
    
    E|-----------------|---0---0---0---0-|---0---0---0---0-|
    B|---0---0---0---0-|-----3---1---0---|-------------0---|
    G|-----------------|-0---------------|-2---1---2-------|
    D|-2---1---2---4---|-----------------|-----------------|
    A|-----------------|-----------------|-----------------|
    E|-----------------|-----------------|-----------------|
    
    E|---0---0---0---0-|---0---0---0---0-|-----0-------0---|
    B|-1---------------|-------------0---|-1-------1-------|
    G|-------------1---|-2---1---2-------|-----------------|
    D|-----2---4-------|-----------------|---2---2---2---2-|
    A|-----------------|-----------------|-0-------0-------|
    E|-----------------|-----------------|-----------------|
    
    E|-1-------1-------|-----------------|-0-------0-------|
    B|-----------------|-3-------3-------|-----------------|
    G|-----2-------2---|-----4-------4---|-----0-------0---|
    D|---0---0---0---0-|---5---5---5---0-|---2---2---2---2-|
    A|-----------------|-5-------5-------|-3-------3-------|
    E|-----------------|-----------------|-----------------|
    
    E|-----------------|-----------------|-----------------|
    B|-1-------1-------|-4-------4-------|-0-------0-------|
    G|-----2-------2---|-----------------|-----0-------0---|
    D|---4---4---4---4-|-----4-------4---|---2---2---2---2-|
    A|-3-------3-------|---6---6---6---6-|-----------------|
    E|-----------------|-7-------7-------|-0-------0-------|
    
    E|-----------------|
    B|-----------------|
    G|-2-------2-------|
    D|-----1-------1---|
    A|---2---2---2---2-|
    E|-2-------2-------|…
  • E|---------------------------|---------------------------------|
    B|-1-0-1-------------------3-|-----1-0-1---3-----0-1-------0---|
    G|---------0---1---1-0-1-----|-0-------------------------------|
    D|---------------------------|-----------------3-------------3-|
    A|---------------------------|---------------------------------|
    E|---------------------------|---------------------------------|
    
    E|-----3-2-3----------3-2-3--5-|----3-2-3--5-------------------|
    B|---1-0-------1---4--4---3----|-3---------------3-4-------3---|
    G|-------2-0-----------------5-|-3--2---3--5---5---0---2-----5-|
    D|-1---------3-1-0-------------|---------------4-----------4---|
    A|-----------------3-----------|-------------------------------|
    E|-----------------------------|-------------------------------|
    
    E|-------------------------------|-3-1-3-----------------------|
    B|----4-3-4----------6-4-6-------|---------0---1--3--4--6------|
    G|-3----------0---1----------1-3-|-3---------0-1-----------5-4-|
    D|-5----------0-1-3--6-----0-3-5-|-------1-3------3--1--0------|
    A|----------3--------------------|-----------------------------|
    E|-------------------------------|-----------------------------|
    
    E|--------------------4--3---1-|-------------------------------|
    B|-----4-3-1----------6--4---3-|-4---3---4---6---0---1---3-----|
    G|-5---------2-1-0-------------|-----1---0-------0-----------0-|
    D|-----------------3-----------|-------------3-------3-1-3---1-|
    A|-----------------------------|-------------------------------|
    E|-----------------------------|-------------------------------|…
  • E|-------------------------------------------------------------|
    B|---------1-0---0-3--1-----1-----------0--------------1--0----|
    G|-------2------------2-----------1-----------2-----2----------|
    D|----2--------2---------------------------0-----2-------------|
    A|-0-----0------------0-----0--3--2-----2-----3-----0--------2-|
    E|-----------0---4-------0-----------0--------------------4----|
    
    E|-----------------------------------0-----0-------------------|
    B|-0--3--1------------------------------1--------1-------------|
    G|--------------------------------------------2--------0-------|
    D|-----------------------------0--------------------2-----3----|
    A|-------0------0--3--2-----2-----3-----0-----3-----0-----5--0-|
    E|-0---------0-----------0-------------------------------------|
    
    E|------------1------------------------------------------------|
    B|-------3----------3--0--3-----0----------------------------1-|
    G|-2-------------------------0---------------------------------|
    D|-------0--3----------0-----------0--3--2--------2------------|
    A|----0-------0--2-----------------2-----------3-----0---------|
    E|-1-------------------------3--------------3------------------|
    
    E|-----------------------------------------------------------0-|
    B|---1---3---0-----0-----1--------------------0-----1-----1----|
    G|-2------------0--------------2-----2-----0-----0-----0-------|
    D|-----3--------------2-----------3-----0-----3----------------|
    A|-3---5-2------2-----3--0--------5-----------------3----------|
    E|---------3----------------1-----------3----------------------|
    
    E|----------1--0-|
    B|-3-----3-------|
    G|----0----------|
    D|---------------|
    A|---------------|
    E|---------------|…
  • (Quarter notes)
    
    e|-0-|-5-----------4-------|-5-----------------0-|
    B|---|-------------5-------|-------2-----3-------|
    G|---|-------2-------------|-2-----2-----4-----1-|
    D|---|-------------------2-|---------------------|
    A|---|---------------------|---------------------|
    E|---|---------------------|---------------------|
    
    e|----------------0-|-----------7-----5-|-4---2--0--2----------|
    B|-2--------0-------|-4---2--0----------|-----------4-----5--4-|
    G|-2----------------|-4---------------2-|-4--------------------|
    D|----------2-------|-----------6-------|----------------------|
    A|-----0------------|-------------------|-----------2----------|
    E|------------------|-------------------|----------------------|
    
    e|-0-------------|
    B|-0-------------|
    G|-1-------------|
    D|-2-------------|
    A|-------2-------|
    E|-------------0-|
    
    (Part…
  • E|---------------|---------|------------0----|-----------------|
    B|---------------|---------|---0-----------0-|1--0-------------|
    G|---------------|---------|0-----0----------|------2--0-------|
    D|-2--0----------|----2--4-|---------2-------|------------4--2-|
    A|-------3--2--0-|---------|-----------------|0-----2-----3----|
    E|---------------|3------2-|0-----2-----3----|-----------------|
    
    E|---------7---|3--2--0--------|-------------|-----------------|
    B|---7-4-----7-|---------3-1-0-|1-3-1-0------|---0--1--0-------|
    G|-------4-----|-----------0---|2-4-2-0-2--0-|2--0--2--0--2--0-|
    D|-1-----------|2-----4--------|--------4--2-|4-----------4--2-|
    A|-2---4---6---|---------------|-------------|-----------------|
    E|-------------|---------------|-------------|-----------------|
    
    E|-------------|------------|----------------|-----------------|
    B|-------------|------------|----------------|0--1--0----------|
    G|-------------|0-------1---|2----------3----|---------2--0----|
    D|-4-------4---|2-------2---|--2--------4----|0-----------1--4-|
    A|---3-2-0-----|--2-------2-|3----3--------4-|------4----------|
    E|---------3-2-|0---3-0-----|--------5-------|-----------------|
    
    E|-----0---2---|3-5-3-2-0---|-----------0----|2--3--2--0-------|
    B|-------------|----------3-|2----3----------|------------3----|
    G|-0-2-0-------|------------|2-4--2--0-------|---------------5-|
    D|-2-----4-2-1-|2---4---5---|-----------4--2-|0-----2-----4----|
    A|-------------|------------|----------------|-----------------|
    E|-------------|------------|----------------|-----------------|
    
    E|---------3---|0-----------|--0--------5--0-|2----------------|
    B|---3-------3-|1-------1---|-----2----------|3-----------3----|
    G|-4---4---4---|--0-------0-|--------2-------|---2-----------2-|
    D|-5-----5-----|----2-------|----------------|0-----4----------|
    A|-------------|------3-----|0----------4----|---------5-------|
    E|-------------|------------|----------------|-----------------|
    
    E|---------3---|0-----------|----------------|-----------------|
    B|---3-0-----3-|--3-1-0-----|----------------|0-----1-----3----|
    G|-------0-----|--------2-0-|-----0-----2----|---2--0----------|
    D|-------------|----0---2---|4----0----------|---------3--2--0-|
    A|-2---0---2---|3-----------|5-7-----3--2--0-|-----------------|
    E|-------------|------------|----------------|3----------------|
    
    E|-0-3-8-7-5---|------0-----|----------------|-----------------|
    B|-1---------8-|7-8-7---3---|0----------0----|-----------------|
    G|-------------|----------5-|----------------|2-----------2----|
    D|-----0-------|0-------4---|5----------2----|---2--------4----|
    A|-3-------7---|----7-------|--2-----------2-|3-----3--------5-|
    E|-------------|------------|-----3--0-------|---------5-------|
    
    E|-------------|------------|--2--0----------|3--2--0----------|
    B|---0---------|1-0---------|--------4--2--0-|---------3--2--0-|
    G|-0---2-0-----|----2-0-----|----------------|-----------------|
    D|---------4-2-|--------4-2-|1----------1----|2-----4-----5----|
    A|-------------|0---2---3---|2----4----------|-----------------|
    E|-3-------3---|------------|----------------|-----------------|
    
    E|---------2---|------------|0----0-----0--2-|3----------------|
    B|---2-------2-|3-------4---|0-4--0--4--0----|------232------0-|
    G|-3---3---3---|4-------4---|0----0-----0----|------------3----|
    D|-4-----4-----|--4-0-----4-|--4-----4-----4-|2-----4----------|
    A|-------------|------2-----|----------------|-----------------|
    E|-------------|------------|----------------|------------2----|
    
    E|------------------|------------0----|---0--2--0-------|--|
    B|-0-----------0----|---------0-------|0-----------4--2-|4-|
    G|------------------|0-----0--------3-|---0--2--0-------|4-|
    D|----4--1--4-----4-|---2-------------|------------4--2-|4-|
    A|-2-----2-----2----|2-----2-----2----|2----------------|2-|
    E|------------------|-----------------|-----------------|--|
    
    PART…
  • E|--------------------------------|
    B|--------------------------------|
    G|-----------------4---7-4--------|
    D|-------3-6-3---3---3-----6-3---3|
    A|-----5-------7---------------7--|
    E|-3-7----------------------------|…
  • E|-------------1-------------|-------------1-------------------|
    B|-----------------5---3---1-|-1-------1-------5---3---1-------|
    G|-5-----3-5---2---3---3---3-|-----2-3-----2---3---3---3-------|
    D|-7---7-5-7---3---2---0---2-|-3-------3---3---2---0---2-------|
    A|-----8---------------------|---3-------3---------------------|
    E|---8-------8---------------|---------------------------------|
    
    E|-1---5-3-1-----------------------|---------------------------|
    B|-------------1---3---3-2-3-------|-------------1---------1---|
    G|-2---5-3-2-------------------0---|-0---2---3-------2--.------|
    D|-3---7-----------3---3---3---0-3-|-2---3---2-0-2---3--|--2---|
    A|-----------------5---------------|-------------3---3-------3-|
    E|---------------------------------|---------------------------|
    
    E|------------1-----------------|-------------1----------------|
    B|-1------1-----------------1---|-1-------1------------------5-|
    G|----2-3-----2--3--2---0-------|-----2-3-----2--3---2---0---3-|
    D|-3------3---3-------------2---|-3-------3---3--2---3-------2-|
    A|---3------3------3--3---3---3-|---3-------3------3---3---3---|
    E|------------------------------|------------------------------|
    
    E|-1---------------3---------------|-0-------------------------|
    B|-----3---3---6-------3---0---6---|-----3-1-3-------1-------!-|
    G|-2-----5-----3---4---4-2-0---4---|-0-------2---0-----------!-|
    D|-3---3---3---3---3---3---3---3---|-2---3-2-0---3---2-------!-|
    A|-----5---5-----------------------|-------------2---3---------|
    E|---------------------------------|---------------------------|
    
    E|---------------------------|---------------------------|
    B|-------------1-------------|-------------1-------------|
    G|-0-------0-------4---2---0-|-----------------4---2---0-|
    D|-2---2-3-2---2---3---3---3-|-5---2-3-5---2---3---3---3-|
    A|-----3-5-----3---2---0---2-|-3-------3---3---2---0---2-|
    E|---3-------3---------------|---3-------3---------------|
    
    E|-----0---------------------------|-----------------------3---|
    B|-1-----3-1-----------------------|---------------------------|
    G|-----0-------0---2---2-1-2-------|-------------0------.--3-2-|
    D|-2---2-3-2-------------------0---|-0---2---3-------2--|------|
    A|-3---------------3---3---3---0-3-|-2---3---2-0-2---3---------|
    E|-----------------5---------------|-------------3---3---------|
    
    E|-------------3-----------------|-----------------------------|
    B|-------------------------------|-4---1-------4---4--3-1-3--3-|
    G|-3---2---3---3---3---2-0-2---5-|-2-------2---2---2-----------|
    D|-2---3---2---5---2-----------3-|---3---3---3--------3---3--3-|
    A|---3---3---3---------3---3---3-|---------------------------5-|
    E|-------------------------------|-----------------------------|
    
    E|---------0----------3--1--0-|-5-----------1---0--------------|
    B|-----6---0---3------2--2--2-|-3---2---3----------------------|
    G|-0---4---0---0---0--0--2--2-|-2---0---2---1---2-3-2-0-----2--|
    D|-3---3-------3---7--------5-|-----2---3---3---2-------3-2----|
    A|-5---------------7----------|-----------------------------4--|
    E|----------------------------|--------------------------------|
    
    E|--------------3--0---------|-----------------3---0-----------|
    B|---------------------2-----|-------------------------2-------|
    G|-3--2-0-1--2--3--0-------2-|-3---2-0-1---2---2-3-2-0---3-2-0-|
    D|-0--2---0-----5--2---------|-0---2---0-----------------------|
    A|-----------4-------------4-|-------------4---------------4---|
    E|---------------------------|---------------------------------|
    
    E|-----1-0-----------------0---1-3-|-1---0---0-----------------|
    B|-3-------3---3-------------------|-------3-----2---3-------!-|
    G|-----2-0-----2---0-2-0---0-----0-|---2-0---0-------2-------!-|
    D|-3---3---3---3---0-----3-2---3---|-3-----3-2-------3-------!-|
    A|-5-------------------------------|---------------------------|
    E|---------------------------------|---------------------------|
    
    E|------------------------------|------------------------------|
    B|------------3-----------------|-------------3----------------|
    G|2-----0-2-----0-----------2---|-2-----0-2-----0-----------2--|
    D|0---3---0---3-----3---2-------|-0---3---0---3-----3---2------|
    A|--0-------0-5---0---0---0-4-0-|---0-------0-5-4-0-5-0---0-4-0|
    E|------------------------------|------------------------------|
    
    E|----1-0----------------0---1-3-|-1---0---0-------------------|
    B|-3------3--3-------------------|-------3----2--3-------------|
    G|----2-0----------------0-----0-|---2-----0--0------------2-0-|
    D|-3--3-2-3--3---2-3-2-0-2---3---|-3---2-0-2-----3-------0-3-2-|
    A|-5------5--5---5---------------|------------4--5-7-5-4-0-----|
    E|-------------------------------|-----------------------------|
    
    E|-1-----------1----------3---|---------------------1-3-1------|
    B|-----5---3--------------0---|-4---3---1---3---4-----------4--|
    G|-2---3---2-------1---0--0---|-0---1---0---0---2---2-0-2---2--|
    D|-3---5---3-------0----------|-1---3---1---0---1---3---3---1--|
    A|-----------------2---2------|--------------------------------|
    E|---------------------3------|--------------------------------|
    
    E|----------3----------------|---------------------------------|
    B|-3-----3-----1-------------|-----3-4-3-----------------------|
    G|----5-----3--0---0---0---0-|-5-----------3---0-----------5---|
    D|-3--3--3--5------8-7-8---2-|-3---3-3-3---0-----3-2-0---0-2---|
    A|-5--3--5-----3---7---7-----|---3-5-6-5---1---3-5-3-2-3-2-3-2-|
    E|---------------------------|-----------------3-------5---5-3-|
    
    E|-------------1-------------|-------------1-------------|
    B|-1-------1-------5---3---1-|-1-------1-------5---3---1-|
    G|-----2-3-----2---3---3---3-|-----2-3-----2---3---3---3-|
    D|-3-------3---3---2---0---2-|-3-------3---3---2---0---2-|
    A|---3-------3---------------|---3-------3---------------|
    E|---------------------------|---------------------------|
    
    E|-1---5-3-1-----------------------|---------------------------|
    B|-------------1---3---3-2-3-------|-------------1---------1---|
    G|-2---5-3-2-------------------0---|-0---2---3-------2--.------|
    D|-3---7-----------3---3---3---0-3-|-2---3---2-0-2---3--|--2---|
    A|-----------------5---------------|-------------3---3-------3-|
    E|---------------------------------|---------------------------|
    
    E|-------------1-----------------|-------------1---------------|
    B|-1-------1-------------------1-|-1-------1-----------------1-|
    G|-----2-3-----2---3---2---0---0-|-----2-3-----2---3---2--0--0-|
    D|-3-------3---3---2-------------|-3-------3---3---0---2-------|
    A|---3-------3-----------------3-|---3-------3-----1---3-----3-|
    E|-------------------------------|-----------------------------|
    
    E|-1---5-3-1-------------------0-1-|-------------------||
    B|---------1---1-2-3---3-2-3-------|-------------------||
    G|-2---5-3-------------------------|-2---0---0---------||
    D|-3---7-5-3---3---3---3---3---2-3-|-3-----3-0---2---3-||
    A|-------------3-4-5-------5-------|---3-1-0-----1---3-||
    E|---------------------------------|---------3---3---5-||…
  • Drop-D tuning.
    
    2/4 time.
    
    E||---------------|----------------|-------------|-------------|
    B||--10---8p7-----|-10-----8p7-----|-------------|-------------|
    G||*----------9p7-|------------9p7-|-------------|-------------|
    D||*----0-----0---|-----0------0---|-4/5/7--5--4-|-2--/7--4--0-|
    A||---------------|----------------|-------------|-------------|
    E||---0---0-------|--0-----0-------|-4/5/7--5--4-|-2--/7--4--0-|
    
    E|-----------------|----------------|-------------|-----------||
    B|-10------8p7-----|-10-----8p7-----|-------------|-----------||
    G|-------------9p7-|------------9p7-|-------------|----------*||
    D|-----0-------0---|-----0------0---|-4/5/7--5--4-|-2--/7--0-*||
    A|-----------------|----------------|-------------|-----------||
    E|--0------0-------|--0-----0-------|-4/5/7--5--4-|-2--/7--0--||
    
    E||---------------|-5------------|-5------5-----|--------------|
    B||--2h3-5--2h3-5-|----5---5-----|----5-------5-|-3p2----------|
    G||*-----2------2-|----2-------2-|----2-------2-|-----4p2-4----|
    D||*--------------|--------------|--------------|-----2------2-|
    A||--0------0-----|-0------0-----|-0------0-----|-0------------|
    E||---------------|--------------|--------------|---------2----|
    
    E|---------------|---------5---4-|---------------|-------5---4-|
    B|-5---4-------3-|-----2---------|-5---4-------3-|----2--------|
    G|---------------|---------------|---------------|-------------|
    D|-----2---2---2-|-----2-------2-|-----2---2---2-|----2------2-|
    A|---------------|---------------|---------------|-------------|
    E|-2-------2-----|-2-------2-----|-2-------2-----|-2-----2-----|
    
    E|-----------------|-0-------------|-----0---------|-----------|
    B|-5p4-2h4-5p4-2h4-|-------------3-|-2h3-----------|-----------|
    G|-----------------|-----1---2-----|---------2-----|-----------|
    D|-----2-------2---|-----2-------0-|-2-----------0-|-----------|
    A|-----------------|---------4-----|---------0-----|-4h5/7---0-|
    E|-2-------2-------|-2-------------|---------------|---------7-|
    
    E|----------------|----------------|-------------|-------------|
    B|-10-----8p7-----|-10-----8p7-----|-------------|-------------|
    G|------------9p7-|------------9p7-|-------------|-------------|
    D|-----0------0---|-----0------0---|-4/5/7--5--4-|-2--/7--4--0-|
    A|----------------|----------------|-------------|-------------|
    E|--0-----0-------|--0-----0-------|-4/5/7--5--4-|-2--/7--4--0-|
    
    E|----------------|----------------|-------------|------------||
    B|-10-----8p7-----|-10-----8p7-----|-------------|------------||
    G|------------9p7-|------------9p7-|-------------|-----------*||
    D|-----0------0---|-----0------0---|-0-----------|----h7-h12-*||
    A|----------------|----------------|-------------|-h7---------||
    E|--0-----0-------|--0-----0-------|-4/5/7--5--4-|-h7----h12--||…
  • E|-------------------------------------|
    B|--2--5--2----------------------5-----|
    G|-----------3-----1--3--4--6h7-----6--|
    D|--------------4----------------------|
    A|-------------------------------------|
    E|-------------------------------------|
    
    E|----7-------------------------------|
    B|-------7-----------------7--9--10--7|
    G|-7--------7-----6--7--9-------------|
    D|-------------9----------------------|
    A|------------------------------------|
    E|------------------------------------|
    
    E|-----------------------------------------|
    B|-9--12--9--------------------9--10-12--9-|
    G|-----------10------8--10-11--------------|
    D|---------------11------------------------|
    A|-----------------------------------------|
    E|-----------------------------------------|
    
    E|-----------------------------------------------|
    B|-10--12--10--9---------------------------------|
    G|----------------11-----------------------------|
    D|--------------------12--11--9------------------|
    A|----------------------------------12--11--9--7-|
    E|-----------------------------------------------|
    
    E|-------------------------------------|
    B|--------------------------9--6--7----|
    G|-----------------6--7----------------|
    D|--------6--8--9--------9-----------9-|
    A|-----9-------------------------------|
    E|-10----------------------------------|
    
    E|----------------4---------------|
    B|----------7--6------------6--7--|
    G|-------4---------------6--------|
    D|----6---------------------------|
    A|-4------------------------------|
    E|--------------------------------|…
  • E|-------------------------------------------------|
    B|-------------------------------------------------|
    G|-------------------19-19-18-19-18-16-------------|
    D|-------16-16-19-19-------------------19-17-16----|
    A|-17-17----------------------------------------19-|
    E|-------------------------------------------------|
    
    E|-------------------------------------|
    B|--------------------------17------17-|
    G|-------------------19-19-------------|
    D|-------16-16-19-19------------19-----|
    A|-17-17-------------------------------|
    E|-------------------------------------|
    
    E|-------------------------19-19-17-17-------------|
    B|-19-19-17-17-20-20-19-19-------------------------|
    G|-------------------------------------18-18-19-19-|
    D|-------------------------------------------------|
    A|-------------------------------------------------|
    E|-------------------------------------------------|
    
    E|-------------------------------------------------|
    B|-------------------------------------------------|
    G|-------------16-16-------------------------------|
    D|-17-17-16-16-------19-19-------------------17-17-|
    A|-------------------------16-16-17-17-------------|
    E|-------------------------------------17-17-------|
    
    E|---------------------------------------------------|
    B|---------------------------------------------------|
    G|------------------------------------------16-18----|
    D|-16----16----------------------16-17---19-------19-|
    A|----19----17-19-19-------17-19---------------------|
    E|-------------------17-17---------------------------|
    
    E|-------------------------------------19-19-17-17-|
    B|-------------17-17-------20-20-19-19-------------|
    G|-19-19-18-18-------19-19-------------------------|
    D|-------------------------------------------------|
    A|-------------------------------------------------|
    E|-------------------------------------------------|
    
    |---------------------------------------------|
    |20p19-17----17----------------------17-------|
    |---------19-------16-17----16-19-18----------|
    |---------------19-------19-------------19-17-|
    |---------------------------------------------|
    |---------------------------------------------|
    
    E|----------------------------------------------|----|
    B|----------------------------------------------|----|
    G|----------------------------------------------|----|
    D|-16-------17-16-19------------17-16-----------|----|
    A|----17-19----------17-16------------19-19--17-|-17-|
    E|-------------------------19-------------------|----|…
  • e|--0--2---#|---3----2--0--------0--2--|-----------------------|
    B|---------#|---------------4----------|--0----2--4--5----3--1-|
    G|---------#|*-------------------------|-----------------------|
    D|---------#|*-------------------------|-----------------------|
    A|---------#|--------0------2----0-----|-----------------------|
    E|--3--2---#|---0----------------------|--3----2-----0----2----|
    
    e|------------------|------------------0--2-|-3--2--0-----0--2-|
    B|-0----------------|-0---------------------|----------4-------|
    G|----2--0-----0--2-|----2--0---------------|------------------|
    D|----------4-------|----------4-2----------|------------------|
    A|----0-----2--0----|-------2---------------|----0-----2--0----|
    E|-3----------------|-3----------0--2--3--2-|-0----------------|
    
    e|-----------------------|---------------------|-------0--2---|#
    B|--0----2--4--5----3--1-|--0------------------|--------------|#
    G|-----------------------|------2--0---------0-|-0-----------*|#
    D|-----------------------|------------4--------|-0-----------*|#
    A|-----------------------|------3-----5---5----|-2------------|#
    E|--3----2-----0----2----|--3------------------|-3-----3--2---|#
    
    e|---------------#|--------------------3----|-0----------------|
    B|---------0-----#|---3-------1--0--------3-|-------3----------|
    G|-0----------0--#|*--2----2----------------|----4-----5--4--2-|
    D|-0-------------#|*-------0----------------|-------------0----|
    A|-2-------------#|--------------------2----|-3----------------|
    E|-3-------3-----#|---2----------3----------|----4-----5-------|
    
    e|---------------------|-----------------------|----3---0------|
    B|-----------1---------|------------------3----|-0----3------3-|
    G|-1---2--4-------4--2-|-2-------------------2-|-----------4---|
    D|-2---------2---------|-----------------------|---------------|
    A|-----0---------------|-0--2--0---------------|----2---3------|
    E|----------------0----|----------3--2----2----|-3---------4---|
    
    e|----5--0----------|------------------|-----------------7-----|
    B|-1--------7-----5-|----2-----------0-|-0------------------7--|
    G|-------------6----|-7-----4--3-------|-----------------------|
    D|----------0-------|----2-----4-------|-----------------------|
    A|-0--4-------------|------------------|-2--1--2--4--6---------|
    E|-------------6----|-7-----------2----|-----------------7-----|
    
    e|-------------5----0--3--|#----2--|
    B|--9----7--5-------------|#-------|
    G|-----------------------*|#-------|
    D|-----------------------*|#----0--|
    A|--7----5-----4----0-----|#-------|
    E|------------------------|#-------|…
  • E|--------||----------0-1-0-3p1p0----------|
    B|--------||--------3-------------3-2------|
    G|---2----||------2-------------------2----|
    D|--------||--0h3-----------------------2--|
    A|--------||-------------------------------|
    E|--------||-------------------------------|
    
    E|-------0h1-3-1-5p3p1------------|
    B|---------------------5-3--------|
    G|-----2-------------------2------|
    D|---2-----------------------3----|
    A|-4------------------------------|
    E|--------------------------------|
    
    E|------------6-5---------------------5-----------|
    B|----6p5---6-----8-6-5-------5-----5---8-6-5-----|
    G|--------7-------------7-5-7---7-5-----------7-5-|
    D|-0----------------------------------------------|
    A|------------------------------------------------|
    E|------------------------------------------------|
    
    E|------------3------------------------------------|
    B|----3-----3---6-5-3-2--------2-----2-5-3-2-------|
    G|3-5---5-3-------------4-2--4---4-2---------4-2---|
    D|-----------------------------------------------5-|
    A|-------------------------------------------------|
    E|-------------------------------------------------|
    
    E|------------------------------------------|---------|
    B|----------------3-2-------------------5-6-|-8-5-----|
    G|---2p0------------------------2-3-5-7-----|-----5---|
    D|-3-----3p2p0---------0--2-3-5-------------|-------5-|
    A|-------------0----------------------------|---------|
    E|------------------------------------------|---------|
    
    E|---------------------------------------------|
    B|----------------------------------------8-10-|
    G|-----5---------------------------7-9-10------|
    D|---5---5-------5-7-5------7-8-10-------------|
    A|-7-------7---7-------8-10--------------------|
    E|-----------8---------------------------------|
    
    E|-6----6-10-----5---5-8-------------6-----------5-----|
    B|---10------5-8---8--------6-8--6-8-----5-6-5-6---8-6-|
    G|------------------------7------------5---------------|
    D|-----------------------------------------------------|
    A|-----------------------------------------------------|
    E|-----------------------------------------------------|
    
    E|---------------------------------------------------|
    B|-5---5-6-5---------------------6-------------------|
    G|---7-------7-5---5-7-5-------5---5---------5-------|
    D|---------------8-------8-7h8-------7---5h7---7-----|
    A|-------------------------------------8---------8---|
    E|---------------------------------------------------|
    
    E|---------------------------------------6---------|
    B|-------------------------------------8---8-------|
    G|-----------------------------------7-------7-----|
    D|-------8-----------------------5-8-----------8-5-|
    A|-5h6h8---8-5-----5-8-5-------5-------------------|
    E|-------------6h8-------6-3-6---------------------|
    
    E|-----------6-------6---6------------5-------5---5-|
    B|-------5-8----------------------5-6---------------|
    G|-----5-------5---5---5--------5-------5---5---5---|
    D|---5-----------8------------7-----------8---------|
    A|-7------------------------8-----------------------|
    E|--------------------------------------------------|
    
    E|-----------6-------6---6------------5-------5---5-|
    B|-------5-8----------------------5-6---------------|
    G|-----5-------5---5---5--------5-------5---5---5---|
    D|---5-----------8------------7-----------8---------|
    A|-7------------------------8-----------------------|
    E|--------------------------------------------------|
    
    E|-------5-6-10-------10---10-------------8--------8---8-|
    B|-----6-----------------------------8-10----------------|
    G|---7----------9-7-9----9---------9--------7----7---7---|
    D|-8--------------------------7-10------------10---------|
    A|-------------------------------------------------------|
    E|-------------------------------------------------------|
    
    E|-----------6--------6---6-----------5-------5-----|
    B|-------6-8----------------------5-6-----------6---|
    G|-----7-------5---5----5-------5-------5---5-----7-|
    D|-5-8-----------8------------7-----------8---------|
    A|--------------------------8-----------------------|
    E|--------------------------------------------------|
    
    E|------------------------------------------------|
    B|----------------------------------------------5-|
    G|-------5-7---------------------------------5----|
    D|-8-7-8-----8-5---5-7-8-5---------5-------5------|
    A|---------------8---------7-5-7-8---7---7--------|
    E|-------------------------------------8----------|
    
    E|-------------------------------------------7-5-|
    B|-----------------------------------------6-----|
    G|-------------------------------7-6-7---7-------|
    D|-8-7-5-------------5---------7-------7---------|
    A|-------8-7-5-4-------7-8-5-8-------------------|
    E|---------------7-5-----------------------------|
    
    E|-7-----------------------------------5-4-5h7h8---5-8-|
    B|---6-5-----------------------------5-----------8-----|
    G|-------7-5-4-------------7-4-5---5-------------------|
    D|-------------7-6-4-------------7---------------------|
    A|-------------------7---------------------------------|
    E|-----------------------------------------------------|
    
    E|-----5-----5-------------------------------7--|
    B|-6h8---5-6-----5h6-----6----------------------|
    G|-------------7-----6-7----------6-7h9h10-7---7|
    D|-------------------------6--7-9---------------|
    A|----------------------------------------------|
    E|----------------------------------------------|
    
    E|---------5-----------4-----------5------------7----|
    B|-----5-----------------------5---------------------|
    G|-5h7---5---5-4h5h7-4---4-5h7---5---5-7h9h10-7---7--|
    D|---------------------------------------------------|
    A|---------------------------------------------------|
    E|---------------------------------------------------|…
  • E|--------------|------------|----------------|----------------|
    B|--------------|------------|----------------|----------------|
    G|--------------|0-------1---|--------~---0---|0---------------|
    D|--------1-----|------------|--------~-------|----4-------3---|
    A|3-------------|------------|2---------------|----------------|
    E|--------------|------------|----------------|----------------|
    
    E|----------|--------1-------|------1---------|----------------|
    B|--------1-|0-1-3-4---4-3-1-|3---3---4-3-1-0-|--0-1-4-3-1-0---|
    G|----0-----|----------------|--0-------------|2-------------2-|
    D|--1-------|----------------|----------------|----------------|
    A|3---------|----------------|----------------|----------------|
    E|----------|----------------|----------------|----------------|
    
    E|--------------|--------------|--------------|----------------|
    B|--------------|--------------|--------------|----------------|
    G|--------------|--------------|--------------|----------------|
    D|3---2-------1-|1---0---------|------------3-|1-------0-------|
    A|--------------|--------4---3-|2-------3-----|----------------|
    E|--------------|--------------|----3---------|----------------|
    
    E|--------------|---------------|---------------|--------------|
    B|-----2-1------|---------------|---------------|-----1-0------|
    G|0-1-3----3-1-0|--0-1-3-1-0----|------0-------1|0--------1-0--|
    D|--------------|3-----------3-1|0-1-3---3-1-0--|--3-1--------3|
    A|--------------|---------------|---------------|--------------|
    E|--------------|---------------|---------------|--------------|
    
    E|----------|----------------|----------------|----------------|
    B|----------|------1---------|------0-1-------|----------------|
    G|----------|0---0---0-------|--0-1---------0-|1-------0-------|
    D|--------1-|--3-------1-0-1-|3---------1-3---|--0-1-3---3-1-0-|
    A|3---------|----------------|----------------|----------------|
    E|----------|----------------|----------------|----------------|
    
    E|-----------------|----------|---------------|----------------|
    B|---------1-------|----------|---------------|----------------|
    G|-------0---0---0-|----------|---------------|----------------|
    D|-1-0-1-------3---|1---------|0-------1------|3---------------|
    A|-----------------|--------3-|---------------|----3-------2---|
    E|-----------------|----------|---------------|--------3-------|
    
    E|---------------|---------------|---------------|--------1----|
    B|---------------|------1-2------|--0-1-3-4-1-0--|0-1-3-4---3-3|
    G|----0-1-3-1-0--|0-1-3-----3-1-0|2-------------2|-----------0-|
    D|1-3-----------3|---------------|---------------|-------------|
    A|---------------|---------------|---------------|-------------|
    E|---------------|---------------|---------------|-------------|
    
    E|--------------|--------------|--------------|----------------|
    B|--------------|--------------|--------------|----------------|
    G|--------------|--------------|------------0-|0---~-----------|
    D|--------0---1-|1---2-------3-|3---4---------|----~-----------|
    A|3---4---------|--------------|--------------|--------2-------|
    E|--------------|--------------|--------------|----------------|
    
    E|------1---------|----------------|
    B|1-3-4---4-3-1-0-|1---------------|
    G|----------------|----0-----------|
    D|----------------|--------1-------|
    A|----------------|------------3---|
    E|----------------|----------------|
    
    E|----------------|----------------|
    B|----------------|----------------|
    G|1-------0-------|----------------|
    D|----------------|1---------------|
    A|----------------|--------3-------|
    E|----------------|----------------|…
  • Basic Bar Structure (smallest spacing = 1/16 note)
      -0--0--0--0--0--0--0--0--0--0--0--0--0--0--0--0-
       ^           ^           ^           ^     beats
    
    : -0----------------------------------------------
    :o-1-----------1-----------1-----------1----------
    :…
  • Part 1 : Fast Picking (you could easily use this with Hard' rock and Heavy)
              don't use pull off or hammer on's
    
     I-------------7-5---------------------5-------------I
     I---6-5---5-6-----8-6-5-------5-----5---8-6-5-3-1---I…
  • I-----------------------7-5-I-7-----5-5-3-3---3---I
     I-----------------3-5-8-----I---------------6---5-I                         
     I-2---------2-4-5-----------I-----6---------------I
     I-----2-4-6-----------------I---------------------I…
  • 1 |       .       |       .       |       .
     E|-5-----------7h9-7------5-------4-------5-------|
     B|-5-----------------------------------------------|
     G|-5---------------7------5-------4-------5-------|
     D--------------------------------------|…
Наверх