Аккорды «John Mayer»

John Mayer
Джон Мейер (англ. John Clayton Mayer родился 16 октября 1977 года в США, штат Коннектикут) - американский певец, автор песен, гитарист, клавишник. Обладатель семи премий "Грэмми". Родился 16 октября 1977 в Bridgeport , Connecticut, USA. Жил также в Бостоне, где в 1998 закончил музыкальный колледж, и Atlanta. На данный момент считает своим домом Нью Йорк. Впервые услышав в 13 лет блюз, Джон Мейер решил связать свою жизнь с музыкой, тогда он и впервые взял в руки гитару. В 15 уже здорово играл… Читать полностью... Джон Мейер (англ. John Clayton Mayer родился 16 октября 1977 года в США, штат Коннектикут) - американский певец, автор песен, гитарист, клавишник. Обладатель семи премий "Грэмми". Родился 16 октября 1977 в Bridgeport , Connecticut, USA. Жил также в Бостоне, где в 1998 закончил музыкальный колледж, и Atlanta. На данный момент считает своим домом Нью Йорк. Впервые услышав в 13 лет блюз, Джон Мейер решил связать свою жизнь с музыкой, тогда он и впервые взял в руки гитару. В 15 уже здорово играл и пел. Джон начинал играть преимущественно акустический рок, но потом перешел к блюзу, выступая с такими знаменитыми блюзменами как B. B. King, Buddy Guy, и Eric Clapton. Таким образом собирал John Mayer Trio. Блюзовое влияние прослеживается на альбоме Continuum, изданном в сентябре 2006 года.Его любимые исполнители Stevie Ray Vaughn, Ben Folds Five, Coldplay, The Police. Считает своих фанатов самыми продвинутыми людьми и очень их любит. Сделал себе три татуировки. В жизни ничего не боится, кроме пожалуй того, не хотел бы оказаться в сумасшедшем доме. Рост 187 см. Самые известные песни "Your Body is a Wonderland" и "Why Georgia". 8 января 2003 на 45 церемонии Grammy номинирован как лучший молодой певец и его песня "Your Body is a Wonderland" была отмечена в номинации мужской вокал. В 2009 году получил 2 грэмми за Best Solo Rock Vocal Performance for "Gravity" from Where The Light Is - Live In Los Angeles и Best Male Pop Vocal Performance for "Say" (From The Bucket List). Скрыть...
Популярные аккорды John Mayer:
алфавиту | просмотрам | случайно
  • Intro 
    Come in at 0:29
    
    G|-------------------------|
    D|-------------------------|
    A|----33--333--------------|
    E|---0--4----4-------------|x1
    
    Verse
    
    G|-----------------------------|
    D|-----------------------------|
    A|-----------------------------|
    E|0-5-0h33--7h57--0h3---3------|x4
    
    Pre-Chorus
    
    G|------------|
    D|------------|
    A|------------|
    E|--3x3--5x5--|x4
    
    G|--------------------|
    D|--------------------|
    A|--------------------|
    E|--3x3--5x5--7x7--9x9|x1
    
    Verse…
  • Intro/Verse
    E[-0--0---0-----]
    B[-0--0---0--0--]
    G[-7--7---7--7--] 	(3x)
    D[-7--5---5--4--]
    A[----7---0--5--]	
    E[-7------------]
    
    E[-0--0---0-----------]
    B[-0--0---0--0--0-0-0-]
    G[-7--7---7--7--7-9-7-]
    D[-7--5---5--4--4-5-4-]
    A[----7---0--5--5-7-5-]	
    E[-7------------------]
    
    E[-0--0---0-----------]
    B[-0--0---0--0--0-0-0-]
    G[-7--7---7--7--7-7-9-]
    D[-7--5---5--4--4-4-5-]
    A[----7---0--5--5-5-7-]	
    E[-7------------------]
    
    E[-0--0---0-----]
    B[-0--0---0--0--]
    G[-7--7---7--7--]…
  • Neon (Bass)
    
    Tuning: Standard
    
    Intro:
    
    G---------------------3-----
    D--------1--3--3--3/6-------
    A-----3---------------------  2x
    E---------------------------
    
    1st verse:
    
    ----------------------------
    -----------1----------------
    -----3---3---------------1--…
  • Intro: rest for 7 bars then: G|----------------|----------------||
                                 D|------------9/--|14--------------||
                                 A|----------------|----------------||…
  • Intro E9
      
    Verse 1
    
    E9	  E9/C        C#m7sus4
    Here       comes   a   cold
    
    C#m/Bb   A      	            A9
    Break    out the winter clothes
    
        A9     A9/Ab   Em9/G
    And find a love to call your own
    
     
    Verse 2
    
    E9	  E9/C…
  • G     D         G          D
    I am driving up eighty five in the 
    G         D          G         D      Em
    Kind of morning that lasts all afternoon 
    Em                                    G     D,     G     D
    I’m just stuck…
  • Intro
    
    e---------------------
    B---------------------
    G------6--------------
    D--4---4--------------
    A--2---5--------------
    E--3------------------
       F   F
    
    e--x----
    b--x----
    g--x----
    d--x----
    a--x----
    E--x----
    Shuffle this…
  • Standard Tuning
    *The strumming can be a little tricky. Just listen to the song a few times and you 
    be able to pick up on it.*
    
    Intro
    
    ----------------------------|
    --3---2---3---3---3---2---3-|
    --2---2---2---2---2---2---2-|
    --0---x---0---0---0---0---0-|
    ------4---x---x---2---x---x-|
    ----------2---3-------2---3-|
    
    
    Verse
    
    "My…
  • Standard Tuning
    Concert Intro
    
    e---9----9---------9-9------------------|
    b----9-10-7-9--9-10---9-9-10p9-9-9~10-9-|
    g----9--------------------------9-------|
    d-7----------7-----------7--------7-----|
    a---------------------------------------|
    e---------------------------------------|
    
    e-9------------9------------------------|
    b--7-7h9~--10-9-7-7h9~-12----12----12---|
    g------------------------9h11--9h11--9--|h
    d--------7------------------------------|
    a---------------------------------------|
    e---------------------------------------|
    
    e-----------------7-----------------7--|
    b---12----12----12-10\9/10\9-9-9-9-9---|
    g-11--9h11--9h11-----------------------|
    d--------------------------------------|
    a--------------------------------------|
    e--------------------------------------|
    
    e----------7----------------------------|
    b-10\9/10\9-10-9h12-------12-------12---|
    g------------------11p9p11--11p9p11--11-|
    d---------------------------------------|
    a---------------------------------------|
    e---------------------------------------|
    
    
    e--------------7------------9--9-------|
    b------12-12-12-10\9/10\9/10--7-7-9-12-|
    g-p9p11----------------------9---------|
    d--------------------------------------|
    a--------------------------------------|
    e--------------------------------------|
    
    
    e--------------------------------------|
    b--------12-------12-------------------|
    g-11p9p11--11p9p11--11p9p11------------|
    d--------------------------------------|
    a--------------------------------------|
    e--------------------------------------|
    
    
    Intro
    The…
  • Standard Tuning
    Capo 3
    
    Intro
    
    e--0h2-----2p0----0-2-3-2------2-2-2p0-----0-2-3-|
    b--3-----------3--3------------3-3-3---3---1-----|
    g--2-----2--------0----------0-------------0-----|
    d--0---0----------x------------------------2-----|
    a-----------------1--------2---------------0-----|
    e------------------------------------------------|
    
    e--2p0-----------------------------------------|
    b--1---3-------0------2------3------0----2---3-|
    g--2-----------0------2------4-----0-----2---4-|
    d--0-------0---0---0--2---2--4----0---0--2---4-|
    a----------------------------------------------|
    e--------3---3---3------3--------0-------------|
    
    
    Verse
    Finger…
  • The intro and solo use the same progression as the verses.
    
             G
    Born and raised
             Cadd9                G
    Locks of brown and streaks of gray
          Cadd9                  G
    I was brought up in brighter…
  • Ab
    Baby, you could jump a hundred times
    Fm7						      Bb    m7      Eb   
    There's just no way that you'll ever fall out of my graces, out of my graces
    Same as 1st
    Let's say for a second that you ever do
    And it gets…
  • Intro: G-G-G-G...etc
    
    
    
    G           C             G
    If you ever plan to motor west
           C                                   G
    Travel my way, take the highway that's the best
             D        C      G
    Get your…
  • Tuning: EADGBe
    
    
    Intro
    D, C, G, Em
    
    Intro/Solo
    e|----------------------------------------------------------------|
    B|----------------------------------------------------------------|
    G|----14------------14--14/16\14--------------------------14--14--|
    D|----------16--14----------------17--16\14--12----14/16----------|
    A|----------------------------------------------------------------|
    E|----------------------------------------------------------------|
    
    e|-----------------------------------------------|
    B|-----------------------------------------------|
    G|------14------14----14/16\14-------------------|
    D|--14------14------------------17--16\14--12----|
    A|-----------------------------------------------|
    E|-----------------------------------------------|
    
    VERSE
    D…
  • Key
    h -Hammer On
    p -Pull Off
    / -Slide Up
     -Slide Down
    x -Mute String
    b -Bend
    r -Release
    
    
    
    Intro (Slight Distortion)
    
    e--6-----6-----6----6------6-----6----5------5-------------
    b----8-----8-----8----8------8-6---8----6----6-------------
    g------7-----7/----8----8-----------------5--5-------------
    d----------------------------------------------------------
    a----------------------------------------------------------
    E----------------------------------------------------------
    
    e-6-----6------6-----6-----6------6----5~--------
    b---8-----8------8-----8-----8-6----8--6~--------
    g-----7-----7/-----8-----8-------------5~--------
    d------------------------------------------------
    a------------------------------------------------
    E------------------------------------------------
    
    Verse
    
    e-----------------------------------------
    b------------4-4--4--3---1-1-1------------
    g--3-3--3----5-5--5--3---2-2-2------------
    d--5-5--5----5-5--5--3---3-3-3------------
    a--5-5--5----3-3--3--x---3-3-3------------
    E--3-3--3------------3---1-1-1------------
    Exact…
  • Note that strings are re-tuned.
    
    e-----------------------------|
    b------4--4--4--4-------------|
    f#-----5--5--5--5-------------|
    e------2--2--2--2-------------|
    b------0--x--4--x-------------|
    E---------4-----0-------------|
    
    Another…
  • Tuning: Standard
    
    1st Loop:
    e|-----------------------------------------------|
    B|-----------------------------------------------|
    G|-----------------------------------------------|
    D|---2-(8x)-0-(3x)--------5-(8x)-4-(3x)-2-(5x)---|
    A|-----------------3-(5x)------------------------|
    E|-----------------------------------------------|
    
    2nd…
  • standard tuning;  note: all low e notes should be played with thumb
    
    
    Part A: intro
    
    e----9---x---x------------x-----------
    b----7---6---7------------6-----------
    g----8---7---6------------5-----------
    d----8---6---4------------4-----------
    a----x---x---6------------x-----------
    e----7---6---x---5/6-5-4--4--4-6-7----
    
    
    Part…
  • Intro: (carillon arranged for guitar)
    
                 G
            e:-------------------------|-------------------------||
            B:-------------------------|-------------------------||
            G:-------------0-----------|----------0--------------||…
  • Intro: (2x)
    D5   A/C#   C   Bm
    D5   A/C#   C   G/B
    
    Verse: (2x)
    D5   A/C#   C   Bm/G
    D5   A/C#   C   G/B
    
    Chorus: 
    D5   A/C#   C   Bm/G
    D5   A/C#   C   G/B
    D   Bm   Em7   A  
    
    Middle-tro: 
    D5   A/C#   C   Bm/G
    D5   A/C#…
  • G7
    Why won't you come baby
    C7                       G7
    Why won't you come when I call
    C7
    Why won't you come baby
                             G7
    Why won't you come when I call
    D7
    Im not up to something funny
    C#7 C7…
  • Capo 8th fret
    
    Intro
    
    (live) 
    
    e---7-------5---------------7------7------7-------7-----7-----7-------7-----7-----7-----
    b-----0-------0---------------0------0------0-------0-----0-----0-------0-----0-----0---
    g-------5-------5---------------5------5--------------5-----5-------------5-----5-------
    d---0-------0-------(x2)----------------------------------------------------------------
    a---------------------------------------------------------------------------------------
    e---------------------------0---------------------2-------------------3-----------------
    
    e----------------------------
    b---------------------0--1---
    g---0--2--0--2--0--2--0--2---
    d---2--4--2--4--2--4---------
    a----------------------------
    e----------------------------
    
    The…
  • E----------------------------------------------|
    A------15v----------------17v-15---------------|
    D-14-16---16-14-16v--14-16------16-14v-----16--|
    G-------------------------------------------17-|
    B----------------------------------------------|
    E----------------------------------------------|
    
    E------19-------17----------19-----17---------|
    A-15-17----15-17-------15-17--15-17-----------|
    D---------------------------------------------|
    G---------------------------------------------|
    B---------------------------------------------|
    E---------------------------------------------|
    
    E------19b------------------------------------|
    A-15-17---17-17b--12-12v---12-15--------15----|
    D-------------------------------14v---14--17v-|
    G---------------------------------------------|
    B---------------------------------------------|
    E---------------------------------------------|…
  • Key:
    x -Muted String
    b -Bend
    r -Release
    ~ -Let Ring
    / -Slide Up
     -Slide Down
    h -Hammer On
    p -Pull Off
    
    
    Intro Verse and Chorus
    
    e------------------|
    b-3--10--11--------|
    g-0---x---x--------|
    d-3--10--10--------|
    a-1---8---8--------|
    E-1---8---8--------|
    This…
  • (revised edition)
    p -Pull Off
    h -Hammer On
    ( )-Optional
    ^ -Strum Up
    x -Mute String
    Here is the tuning for this song:
    
    high e=e (dont change)
    B=B (dont change) 
    G=F# (2nd fret on the newly tuned E string)
    D=E (The 5th fret…
  • |----------------------------------------------|------------------|---------|
    |-------9------5h7-5------------------9-9------|-5h7-5-5--5-5-5-5-|-5-5-5-5-|
    |-6-8-9-9-11-9-6-6-4------11-8h9-8S=9-9-9-11-9-|-6-6-4-4--4-4-4-4-|-4-4-4-4-|
    |-6-9-9----9-9-7-7-6-9S11----9---9S11-----11-9-|-7-7-6S7--7-6-4---|-7-6-4---|
    |----------------------------------------------|----------------7-|-------7-|
    |--------------5-5-5---------------------------|-5-5-5-5----------|---------|
    
    |-------------------------------|
    |-9-10S12-9---------------------|
    |-9-11S13-9-11--9-8-----------9-|
    |------------9-11-9-11-9-9----9-|
    |-------------------11-9-9h11---|
    |-------------------------------|
    
    |-----------12-----------|-12---------------------------|
    |-5h7-5S7-5-12-----------|-12------------12-------------|
    |-6-6-6S8-4----11p9------|----11p9-------11-11h13-13p11-|
    |-7-7-7S9-6---------11p9-|---------11p9-----------------|
    |------------------------|------------------------------|
    |-5-5-5---5--------------|------------------------------|…
  • Tuning: Standard E
    
    *snapping starts*
    
    Intro *palm muted*
    e|-------------------------------------|
    B|-------------------------------------|
    G|-2-2-2-2-2-2-2-2-4-4-4-4-4-4-4-4-----|
    D|-5-5-5-5-5-5-5-5-5-5-5-5-5-5-5-5-----|
    A|-3-3-3-3-3-3-3-3-3-3-3-3-3-3-3-3-----|
    E|-------------------------------------|x…
  • Tunning: e - e
             B - B
             G - F#
             D - E
             A - B
             E - E
    
    Intro
    |-0h2p0---------------------|
    |--------/4---2h4p2---------|
    |---------------------/4----|
    |---------------------------|
    |---------------------------|
    |---------------------------|
    
    
    Verse…
  • Tuning: Eb-Ab-Db-Gb-Bb-eb
    
    
         d     d-u       d-u   d   d   d-u
    eb|-----------------------------------------|
    Bb|--9h10--x-9h10p9--x-x--------------------|
    Gb|--9-----x-9-------x-x--------------------|
    Db|--9h11--x-9h11p9--x-x-------9~-----------|
    Ab|------------------------9h11-------------|
    Eb|--------------------------------0-0------|…
  • LEGEND:
    
    x  = mute
    /  = slide down
    \  = slide up
    h  = hammer on
    p  = pull off
    (1)= first verse/pre-chorus
    (2)= second verse/pre-chorus
    (3)= third verse/pre-chorus
    
    INTRO:
    
    e -|----------------------------------x---------|
    B…
  • Verse
    
    -0---0-------------
    (9)-(10)-----------
    -9---11------------ x a bunch 
    -9---9-------------
    -7---9-------------
    -0---0-------------
    
    A hotel key...a bedroom made.....
    -0---0--0---------0-0-------
    -0---0--0---------0-0-------
    -x---8--6---------8-x-------
    -11--9--7---------9-11------…
  • Standard Tuning
    Intro/Verse
    He does various rhythyms with this
    and occassionaly plays it differently.
    
    "Just cast away..."
    e-------------------------|
    b-------------------------|
    g-----8------4----6-------|
    d-----6------2----4----6--|
    a----(4)---0----2------4--|
    e--0-----------------2----|
    
    Pre…
  • Tuning: Standard E tuning
    
    e|---------------------------------------------------------------------------|
    B|---------------------------14p12-------------------------------------------|
    G|-------12b14--14p12--------14p12--x----------------------------------------|
    D|--------------------14------------x--14p12--14p12--------------------------|
    A|--------------------------------------------------------12-----------------|
    E|---0--------------------0--------------------------15--------15p12---------|
    
    e|---------------------------------------------------------------------------|
    B|-------14p12--14p12---15p12------14p12----------14p12--14p12---------------|
    G|-------14p12--14p12--------------14p12----------14p12--14p12---------------|
    D|----------------------------12---------14----------------------------------|
    A|---------------------------------------------------------------------------|
    E|---0----------------------------------------0------------------------------|
    
    e|------------------------------------12--------12-12-------12-12-------12-12|
    B|------14p12-------14p12-------15b17-----15b17-------15b17-------15b17------|
    G|------14p12-------14p12----------------------------------------------------|
    D|-------------14----------14------------------------------------------------|
    A|---------------------------------------------------------------------------|
    E|---------------------------------------------------------------------------|
    
    e|---------------------------------------------------------------------------|
    B|-----15p12----------------------12h14-14b15--14--12h14---------------------|
    G|-----------14b15r14p12----12h14-------------------------12b14--------------|
    D|-----------------------14--------------------------------------14p12-------|
    A|---------------------------------------------------------------------------|
    E|---------------------------------------------------------------------------|
    
    e|-----------------------------------------------0---------0-----------------|
    B|------------------------------------------3b5----3p0-------3p0-------------|
    G|-----------------------------------------------------2/4-------3-2p0-------|
    D|-------14\-12\-11\--9\-7\-6\-4\--------------------------------------2-----|
    A|----14/16\-14\-12\-10\-9\-7\-6\--------------------------------------------|
    E|---------------------------------3b3.5p0-----------------------------------|
    
    e|---------------------------------------------------------------------------|
    B|----3p0-------------0------------------------------------------------------|
    G|--------3-2p0---0h2---2p0---0----------------------------------------------|
    D|--------------2-----------2---2p0---0h2-0h2-0h2-0h2-0h2-0h2----------------|
    A|----------------------------------2----------------------------------------|
    E|---------------------------------------------------------------------------|
    
    e|---------------------------------------------------------------------------|
    B|---------------------------------------------------------------------------|
    G|---------------------------------------------------------------------------|
    D|------------------------------5--------------------------------7(p5)-------|
    A|------------5h7-----------5h7----7p5---------5h7-----------5h7-------7p5---|
    E|----0---5/7-------0---5/7------------0---5/7-------0---5/7-----------------|
    
    e|---------------------------------------------------------------------------|
    B|-------------------------------------------14---14---14---14---14-14-------|
    G|-------------------------------------------14---14---14---14---14-14-------|
    D|------------------------------5--------------------------------------------|
    A|------------5h7-----------5h7----7p5---------------------------------------|
    E|----0---5/7-------0---5/7------------0--------------------------------(0)--|
    
    e|---------------------------------------------------------------------------|
    B|-----14p12---14p12-----14p12----14p12--------14p12---14p12-----------------|
    G|-----14p12---14p12-----14p12----14p12--------14p12---14p12-----------------|
    D|-------------------14--------14-------14-------------------14--------------|
    A|---------------------------------------------------------------------------|
    E|-----------------------------------------(0)-------------------------------|
    
    e|---------------------------------------------------------------------------|
    B|-----14p12-----14b15r14p12----------14p12---14p12-----14p12----14p12-------|
    G|-----14p12-----14b15r14p12----------14p12---14p12-----14p12----14p12-------|
    D|-----------14--------------14---------------------14--------14-------14----|
    A|---------------------------------------------------------------------------|
    E|-------------------------------(0)-----------------------------------------|
    
    e|---------------------------------------------------------------------------|
    B|----[------12-]---------------14p12---14p12--xxxx--(12)-12\-10\-8----------|
    G|----[-14b16---]--x8ish--------14p12---14p12--xxxx--(12)-12\-11\-9----------|
    D|---------------------------------------------------------------------------|
    A|---------------------------------------------------------------------------|
    E|------------------------(0)-----------------------------------------0------|
    
    e|---------------------------------------------------------------------------|
    B|----14p12---14p12---15---------------------------------14p12---14p12-------|
    G|----14p12---14p12-------pb15r14p12---------------------14p12---14p12-------|
    D|-----------------------------------14--x---------x-------------------------|
    A|---------------------------------------x---------x-------------------------|
    E|------------------------------------------3b3.5-----0----------------------|
    
    e|---------------------------------------------------------------------------|
    B|-----14p12--------------------------------14p12--14-12-12------------------|
    G|-----14p12--------------------------------14p12--14-12-12------------------|
    D|-----------14--x---------x----------x--------------------------------------|
    A|---------------x---------x----------x--------------------------------------|
    E|------------------3b3.5(p0)--5b5.5(p0)-0-----------------------------------|
    
    e|---------------------------------------------------------------------------|
    B|---------------------------------------------------------------------------|
    G|-----7/9-7/9-7/9--7/9-7/9--7-----------------------------------------------|
    D|------------------------------7p5-----5h7/9-5-------5-5h7-7b8r7p5----------|
    A|----------------------------------7-7---------7p5h7---------------7p5h7----|
    E|---------------------------------------------------------------------------|
    
    e|-----------------------------------------------|------------12\--|---------|
    B|-------------------------11\--------------12\--|------------12\--|---------|
    G|-------------------------11\--------------12\--|-----------------|---------|
    D|-----x---------x-------------------------------|-----------------|-x2------|
    A|-----x---------x-------------------------------|-----------------|---------|
    E|--------3b3.5(p0)--5b5.5(p0)--0h3b3.5p0-0------|--0h3b3.5p0-0----|---------|
    
    e|--------------------12---------------14-14-14-14---------------------------|
    B|--------------------12--a-few-times--14-14-14-14--14b15.5r14-12------------|
    G|--------------------12---------------14-14-14-14--14b15.5r14-12------------|
    D|-----------------------------------------------------------------14--------|
    A|---------------------------------------------------------------------------|
    E|-----0h3b3.5p0-0-----------------------------------------------------------|
    
    e|---------------------------------------------------------------------------|
    B|-----14p12-------12h14b15.5--12---------14b15.5r14-12----14p12------[10]---|
    G|-----14p12-------12h14b15.5--12---------14b15.5r14-12----14p12------[11]x6-|
    D|-----------14-14----------------14(p12)---------------14-------14-x--------|
    A|---------------------------------------------------------------------------|
    E|---------------------------------------------------------------------------|
    
    e|-------------------------------12-12------------12-12----------------------|
    B|-----14b15.5r14-12---14p12-----15-15-for-a-bit--15-15-for-a-bit-more-------|
    G|-----14b15.5r14-12---14p12----------------------14-14----------------------|
    D|---------------------------14----------------------------------------------|
    A|---------------------------------------------------------------------------|
    E|---------------------------------------------------------------------------|
    
    e|----|--12--12-12-12-12--|-------|--12-12--|--------------------------------|
    B|----|--15--15-15-15-15--|-------|--15-15--|--------------------------------|
    G|----|--12--14-14-14-12--|--x2---|--12-14--|--x5----------------------------|
    D|----|-------------------|-------|---------|--------------------------------|
    A|----|-------------------|-------|---------|--------------------------------|
    E|----|-------------------|-------|---------|--------------------------------|
    
    e|-----12-----12----12-----12-12-12--12--(12)--------------------------------|
    B|-----15-----15----15-----15-15-15--15--(15)--------------------------------|
    G|-----14b15--14p12-14p12--------12-----(strum)------------------------------|
    D|-------------------------14-14-----14--(14)--------------------------------|
    A|---------------------------------------------------------------------------|
    E|---------------------------------------------------------------------------|
    
    
    THIS…
  • Tuning: Half Step Down
    All bass notes are played with thumb.
    
                              CHORDS USED
    
       E  C#m  G#m  Bm7  A  F#m  B  Dm7
    |--0---x----x----x---x---x---x---x-------------------------------|
    |--0---5----4----4---5---2---7---7-------------------------------|
    |--1---6----4----4---6---2---8---7-------------------------------|
    |--2---6----6----4---7---4---9---7-------------------------------|
    |--2---4----x----2---x---x---x---5-------------------------------|
    |--0---x----4----x---5---2---7---x-------------------------------|
    
    E…
  • Intro: D F x2
    
    D               F     D
    There's a new sensation
    D            F            D
    Sweeping all over the nation
    F
    And they're calling it
    G                    D
    Bare ballin it, bare ballin it
    D
    Well I seem…
  • CAPO 7! (For the live versions, he is usually Capo 8 because he cuts in to 3x5)
    Chords used:
        F#min   A    Dadd9    E
    e||--x-------x-------0-------0----||
    B||--2-------x-------2-------0----||
    G||--2-------2-------2-------1----||
    D||--4-------2-------4-------2----||
    A||--4-------4-------5-------2----||
    E||--2-------5-------x-------0----||
    
    
    Intro:…
  • Standard tuning
    note: all low e notes should be played with thumb 
    
    
    Part A: intro and verse 
    
    e----x---x----x----x---- 
    b----3---1----8----8---- 
    g----0---0----0---11---- 
    d----5---3---10---10---- 
    a----x---x----x----x----…
  • Intro: D-G-D-G
     
     
    Verse:
                D
    Think I'm gonna stay home
                G
    Have myself a homelife
                D
    Sittin in the slow-mo
                             G
    And listenin to the daylight
                D
    I…
  • Song structure
    
    Intro                00:00
    
    Verse1               00:11
    
    Chorus1              00:57
    
    Instrumental break1  01:16
    
    Verse2               01:29
    
    Chorus2              01:52
    
    Instrumental break2  02:11
    
    Bridge…
  • * = staccato
    # = accent
    ^ = fret note with your thumb
    ()= ghost note
    
    I)
       *       # # #       #     #           *       # # #   *  *  #   #
    |------X---3--------------------------|------X---3-------------------------|
    |------X---3-6-3----------------------|------X---3-6-3---------------------|
    |------X---3-3-3-------5-----5--------|------X---3-3-3---------5---5-------|
    |------X---------------5h7---5--------|------X-----------------5h7-5-------|
    |------X---------0-5-8---------8p5----|------X---------0-5--8--------8p5---|
    |--3---X-3-------------------------8--|--3---X-3-------------------------8-|…
  • Intro - Bm - G - Bm - A
    
    Verse 1
                 Bm                       G
    I work in the dead of night, when the roads are quiet...
                  Bm               A
    And no one is around, to track my moves…
  • D          G 
    Who says I can't get stoned?
    Em                          A
    Turn off the lights and the telephone
    Bm        E
    Me and my house alone
    G          A         D
    Who says I can't get stoned?
    
    D          G
    Who…
  • Dm7 (10X12101010)
    Gm7 (3x5333)
    C (8X10988)
    Bb (6X8766)
    F (1X3211)
    
    Intro and Verse: (Dm7, Gm7, C, Dm7)
    
    Dm7                 Gm7
    Is there anyone who ever remembers
    C                        Dm7
    Changing their mind…
  • Key:
    h-hammer on
    s/-shift slide
    /-legato slide
    p-pull-off
    
    Intro
    e-----------------------------------------------------------------------|
    b------------1--------------3----------------------------1----------1---|
    g------------2--------------2-----------0-------------0----------0------|
    d------2--------------0--------------0-----0h2-----2----------0---------|
    a---0-----0-------------------------------------3-----------2-----------|
    e---------------3--2-----2-----2--3-------------------------------------|
    
    e-------------------------------------------------------|
    b------------1--------------3--------------3--------3---|
    g------------2--------------2-----------0--------0------|
    d------2--------------0--------------4--------4---------|
    a---0-----0---------------------------------------------|
    e---------------3--2-----2-----2--3---------------------|
    
    Verse…
  • The chords used are:
    
       Dsus4(add9)  Am7add9    Em       G(no1)   Em7    G(no2)   Cadd9
    e|-(0)----------0----------0--------x--------0-------3-------3-----------|
    B|--7-----------0----------0--------3--------3-------3-------3-----------|
    G|--0-----------5----------0--------4--------0-------0-------0-----------|
    D|--7-----------5----------2--------5--------2-------0-------2-----------|
    A|--5-----------x----------2--------x--------2------(2)------3-----------|
    E|--------------5----------0--------3--------0-------3-------------------|…
  • Tuning: EADGBE
    
    (INTRO)
    F#   
    One. Two. One Two Three...
    F#
    They Call me the breeze
    
    I keep blowin' down the road
    B
    Well now they call me the breeze
                          F#
    I keep blowin' down the road
    C#
    I…
  • G        Em
    It takes a fool to love you
               C        G
    It takes a fool to love you
       G/f#    Em        A
    It takes a fool to love you
         C            D        G
    And I'm just the fool for you
    
    G…
  • Intro/Verse/Chorus:
    
    D7 - G7 - D7 - D7
    G7 - G7 - D7 - D7
    A7 - G7 - D7 - [G7 - A7]
    
    
    I'm putting you baby
    I'm putting you right out of my mind
    I'm putting you baby
    I'm putting you right out of my mind
    So tired…
  • Tuning: EADGBe
    
      Intro/riff
      A
    E|-----------------------------|----------------------------|
    B|-----------------------------|----------------------------|
    G|--5/6-x-x-------x-x----------|--5/6--x-x-------x-x--------|
    D|------x-x--5h7--x-x----------|-------x-x--5h7--x-x--------|
    A|------x-x-------x-x----5-----|-------x-x-------x-x-----5~~|…
  • Tuning: Standard
    
    Intro / Verse / Outro
    
    e|-----------|
    B|-3--2--3---|
    G|-2--2--4---|
    D|-0--0--0---|
    A|-x--x--x---|
    E|-2--2--3---|
    
    Chorus
    
    e|-----------|
    B|-3--5--7---|
    G|-4--6--7---|
    D|-5--7--9---|
    A|-x--x--x---|
    E|-3--5--7---|
    
    Bridge…
  • Standard Tuning
    
    
    (CAPO 5th FRET)
    
    
    Intro: D
    
    
    D
    Give me my badge and gun
                  G             D
    Give me the road that I may run
                  D                                   A7
    Give me that peaceful,…
  • G         C
    Well, Olivia is taken
          Am
    But a look like hers
                      C       G   C,G
    Can be found from time to time
           G         C
    Yeah, Oliva is taken
           C
    But a look like hers…
  • Intro:
    
    e|--------------------------------------------------|
    B|---9-------9------9------------------9------------|
    G|---9-------9------9------------------9------------|
    D|---9-------9------11----------7--7---9------------|
    A|---9/11/9--11-----0-------7---7--9---9/11---------|
    E|---0--------------9-------7/9--------0------------|
    
    
    e|--------------------------------------------------|
    B|--7/9----------9------9/10------9-----------------|
    G|--7/9--11--9---9------9-9-------9-----------------|
    D|-------11--9---11-----9/11------9-----------------|
    A|---------------0------0---------9/11--------------|
    E|---------------9----------------0-----------------|
    
    Chords(for…
  • Tuning: Standard
    
    This is played for the intro and all verses:
    Example ONE:            Example TWO:
    
    e|----------------------|  e|----------------------|
    B|----------------------|  B|---2----0----1--------|
    G|---6----4----5----6---|…
  • Tuning: Standard
    
    ===============================================================================
    
    ---------------
    Intro/Main riff
    ---------------
    
    e|---------------------------------------------------------------------------|
    B|---------------------------------------------------------------------------|
    G|------------13~------------------13-13sb-----------------------------------|
    D|-14sb-------14~--------14sb------14-14-------------------------------------|
    A|-14sb--X-16------X-16--14sb-X-16---------X-16------------------------------|
    E|---------------------------------------------------------------------------|…
  • Notes:
    Capo on 2, standard tuning
    Entire song strummed except first intro
    Order of parts played on 9.16.00 : A,B,C,D,C,E,B,E,F,C,E,B,E,F,G,B,E,F
    
    
    Part A: Intro (finger picked)
    
    e--------------------------
    b--------7-9--------5-3----
    g--------------------------
    d------7----------5---4----
    a----5----------3----------
    e--------------------------
    
    
    Part…
  • Tuning:Regular
    
    
    Intro/Verse/Chorus
    
    e:--10---7---------------3-----------------5---7----------------3------|
    B:--10---7---------------3---7------7------5---7----------------3---7--|
    G:--11---7-----7h9p7-----4---7------7------6---7-----7h9p7------4---7--|
    D:--12---7-7h9-------9---5---7------7------7---7-7h9-------9----5---7--|
    A:--x----x---------------x---5--7/9----9\--x---x----------------x---5--|
    E:--10---7---------------3-----------------5---7----------------3------|
    
    Pre-chorus
    
    e:--10--7---7---7----------------5--7---------------3-------|
    B:--10--8---7---8--7h8p7---------5--7---------------3---7---|
    G:--11--7---7---7-------7h9p7----6--7-----7h9p7-----4---7---|
    D:--12--9---7---9-------------9--7--7-7h9-------9---5---7---|
    A:--x---7---x---7----------------x--x---------------x---5---|
    E:--10------7--------------------5--7---------------3-------|
    
    Bridge
    This…
  • Chords you need to know to play this song:
    
         F     Bb    C    Dm    Am7
    e|--------------------1-----0--------|
    B|---1-----3-----1----3-----1--------|
    G|---2-----3-----0----2-----0--------|
    D|---3-----3-----2----0-----2--------|
    A|---x-----1-----3----0-----0--------|
    E|---1-------------------------------|…
  • Capo 2nd fret. 
    
    Intro 
    
    e------------------2-------------------------4-------------------- 
    b--4-----4---2----------4--------4---2--------------4--------4---- 
    g--4-----4---4-----4----4--------4---4-------4------4--------4----…
  • Intro: E
    
    Asus4     A           E 
    This is a call to the colorblind
    Eadd9        E
    This is an IOU
        Asus4      A          A   
    I'm stranded behind the horizon line
    E7                   E 
    Tied up in something new
    
    BRIDGE…
  • Part 1 
    
    e-------------------------------------------------------------------- 
    b-------------------------------------------------------------------- 
    g--------------------------------------------------------------------…
  • G                        D
    Don't know why, Tori came by,
     Em                             C
    I could see by the look in her eyes
      G                                 D
    Tori been drivin' round the town for a while
       Em…
  • Intro: C  Bb  F  Dm  Bb and back to C.
    
    C                 Bb                  F
    It doesn't matter where you roam  
                       Dm
    When no one's left to call you home
    C                      Bb             F 
    I…
  • No capo
    
    G              
    Close your eyes and close your self
    Cadd9      Em7      Cm7 D/F#
    Build your heart an army
    G
    to defend your innocence
          Cadd9  D/F#       G 
    While you do everything wrong
    
    G
    Dont be…
  • Intro
    
    e---------------------------------------------------------------------
    b---------------------------------------------------------------------
    g--------------------------------------------7------7-----------------
    d--9----9-------9-----------------(x2)---7------------------------(x2)
    a--9h11----9h11-----9--11--9-------------7h9----7h9----7--9--7--------
    e--0--------------------------12---------0----------------------10----
    
    e-------------------------
    b-------------------------
    g-------8------8h9----9---
    d---------9----9------7---
    a--------------------/5---
    e---/9-------9------------
    
    
    Part…
  • Tuning: Standard
    
    Chords:
    
         G    Em   C    A7  C/D   Am  Am7
    e|---x----x----x----0----x----x----x-----------------|
    B|---3----5----5----2----5----5----5-----------------|
    G|---4----4----5----0----5----5----5-----------------|
    D|---5----5----5----2----5----7----5-----------------|
    A|---x----x----3----0----5----7----x-----------------|
    E|---3----0----x----x----z----5----5-----------------|
    
    Intro:…
  • Verse/Chorus
    E|---------------------------------------|
    B|--2---2---2---5----0---3----2---5------|
    G|--2---4---2---6-7--6---5-4--2---7------|
    D|--2---2---4---5----4---3----2---6------|
    A|--0---x---x---x---/5---x----0--/7------|
    E|------4---2---5--------3---------------|
    
    Pre-Chorus
    E|--------------|…
  • Key:
    h -Hammer On
    p -Pull Off
    x -Muted string
    ~ -Let ring
    T -Thumb
    / -Slide Up
     -Slide Down
    ># -5-Way Switcher Up (Towards bridge) this will be followed by a number, the number 
    which how many clicks or settings you have…
  • e----------------------------|-14-------------------------------------|
    b----10-12-13-12-10----10-12-|----13-12-10----10-10-10/11-------------|
    g-11----------------11-------|-------------11-------------------------|
    d----------------------------|----------------------------------------|
    a----------------------------|----------------------------------------|
    e----------------------------|----------------------------------------|
    
    e----12-12-14b-12----12-14b--|-17b19-17b18-17b18-15-------15b---------|
    b-15--------------15---------|----------------------17-17-------------|
    g----------------------------|----------------------------------------|
    d----------------------------|----------------------------------------|
    a----------------------------|----------------------------------------|
    e----------------------------|----------------------------------------|
    
    e----15-17b-15-17b-21-|-x-x-|-----17-15-17-17p15----15----------------|
    b-17------------------|-5-5-|-/17----------------17----15-------------|
    g---------------------|-6-6-|-----------------------------14----------|
    d---------------------|-5-5-|-----------------------------------------|
    a---------------------|-----|-----------------------------------------|
    e---------------------|-----|-----------------------------------------|
    
    e-15/17-17p15-------------|-x-x-|-------------------|-x-x-x-----------|
    b------------…
  • (Intro)
    
    G, repeated throughout. It sounds to me as though John is riffing on the B string 
    as follows: 12--s10--s8 (or high E 7--s5--s3)and then heads to a G chord like 
    3x543x while hammering the g string from the…
  • Standard Tuning
    Intro
    
    e--------------------------------------|
    b--------------------------------------|
    g---------9h11~------------------------|
    d-----9-9-9------9---------------------|
    a-----11-------11-11-9\7-9~-11\9p7-9~--|
    e-0~0~------------------9--9-----------|
    
    e--------------------------------------|
    b----------------------9h12-9----------|
    g-------9h11~----------------11-9h11-9-|
    d---9-9-9------9-----------------------|
    a---11-------11-11\9p7-----------------|
    e-0~-----------------------------------|
    
    e------b12-----------------------------|
    b------b12-9------9--------5~-----5----|
    g-h11-9-----11-9---11-9----6~-6--6-----|
    d---------------11-----11--7~7--6------|
    a------------------------0~----7----0--|
    e----------------------------------5---|
    
    e--------------------------------------|
    b-------------------------12-9--9------|
    g---------2p1-2p4-------------11-11p9--|
    d----------------0h2-0-----------------|
    a-0-0-----------------2p0--------------|
    e----5p4p0---------------0-------------|
    
    e--------------------------------------|
    b--------------------------------------|
    g-----------------11-14\9~-------------|
    d-11p9------------11------11-----------|
    a-----11p9------------------11-7-11p9--|
    e---------11p9~10~---------------------|
    
    e--------------------------------------|
    b------9--------12---10p9--------------|
    g-------11p9----11---11--11p9--9-------|
    d-----------11---------------11-11p9---|
    a-9\7h9-----------------------------12-|
    e-------------9~--10~------------------|
    
    e------------------------------9h12p9--|
    b-12-9--9----------------------10------|
    g-----11-11p9--------------------------|
    d------------11p9----------------------|
    a----------------11p9------------------|
    e--------------------12p9-7p9\5--------|
    
    e-------9------------------------------|
    b-12-10~-12---------------8h10p11p10p8-|
    g----------11p9--7~9h11p9~-------------|
    d----0~--------11----------------------|
    a--------------------------------------|
    e----------------8~--------------------|
    
    e--------------------------------------|
    b-h10p8--------------------------------|
    g------10p9----------------------------|
    d----------9h12------------------------|
    a--------------12-12p10-10\7-7----10---|
    e-----------------------------10p0-----|
    
    e--------------------------------------|
    b--------------------------------------|
    g--------------------------------------|
    d--------------------------------------|
    a-10-12/14-12p10----------12h14-12h14\-|
    e---------------12p10h12p0-------------|
    
    at…
  • Verse:
    
    e---5---5----------|-(5)------------|--(5)--------------(5)-----|
    B---5---5--10---7--|--5---2---7-----|---5----------------5------|
    G---6---6---7---5--|--6---2---7---7-|---6------7---7-7---6---7--|
    D---7---5---7---7--|--7---6---9---6-|---7------7---7-7---7---6--|
    A---x---x---9---6--|--x---4---x---7-|---x---4--7h9-9-8---x---7--|
    E---5---5----------|--5-------7-----|---5-7--------------5------|
    
    2nd…
  • standard tuning
    
    Concert Intro
    
    
    1st Part:
    
    e--------------------------------------|
    b----5---5------2-5-0---5---5----------|
    g----6-4-4-(x5)---4-4---6-4-4----------|
    d--0-4-2-2--------------4-2-2----------|
    a-5---0-0------------0-5-0-0-----------|
    e--------------------------------------|
    
    e--------------------------------------|
    b-2-5-0--------------------------------|
    g---4-4---6--4--4-4~-------------------|
    d---------4--2--2-2~-------------------|
    a--------5--0--0-----------------------|
    e--------------------------------------|
    
    2nd…
  • No Capo
    
    A
    Dear Marie,
    Asus                          A
    Tell me what it was I used to be?
    D
    Oh, dear Marie,
    Asus                          A
    Tell me what it was I used to be?
    E…
  • verse
    -------------------------------------------------------------------|
    -------------------------------------------------------------------|
    -----6-6-6-6---------4-4-4-4---------------------------------------|
    -----6-6-6-6---------4-4-4-4------------3-3-3-3--------------------|
    -----4-4-4-4---------2-2-2-2------------3-3-3-3--------------------|
    ----------------------------------------1-1-1-1--------------------|
    
    Chorus
    --4----2----------------4------------------------------------------|
    --4----3----------------4------------------------------------------|
    --5----4---1---6--------5--------4---------------------------------|
    --6----4---2---6----3---6----7---4---------------------------------|
    --6----2---2---4----3---6----7---2---------------------------------|
    --4----2------------1---4----5-------------------------------------|
    REPEAT…
  • D                  A
    Speak, speak your mind
                Bm                    A
    Your always telling me I need to open mine
        D               A
    And wait, wait your turn
                 Bm…
  • Intro     F^  Dadd9     2x (picking)
    
    V1
    F^                              D add9
    If I ever get around to living
    I'm gonna put my things away
    In the drawers and in the closets
                        G   (line: A B C)…
  • Key:
    p -Pull off
    h -Hammer On
    b -Bend
    / -Slide up
    \ -Slide Down
    ~ -Let ring
    T -Thumb (He uses his thumb in almost all of his songs)
    x -Mute string
    
    
    Intro (Bridge and Middle pickups)
    
    e----------------------------|
    b-----9---10--7-----9--------|
    g----9----9---7----9---------|
    d---9-----11--7---9----------|
    a-9h11----9---5--9h11--------|
    E---------x---x--------------|
    Play…
  • Verse
    C			        F
    You and I we were born out of the same page
    When we found out we were one another
    We were bleeding from the same vein
    F				Dm
    Sometimes you left to go off to sea without me
    Now you can bring a…
  • Chords used:
    
    Verse: D, Bm, F#m, A
    Chorus: G, D/F#, A
    
    
    
    D            Bm
    I am an architect
    
    F#m                              A
    Of days that haven't happened yet
    
    D       Bm              F#m…
  • Chords used:
    
        A   E  F#m  D   A*  Bm  A**  D/F#  E*  D*  E**  D**   
    e|--5---0---2---5---0---7----0----7----7---7---12---10---|
    B|--5---0---2---7---2---7----5----10---9---7---12---10---|
    G|--6---1---2---7---2---7----6----7----9---7---13---11---|
    D|--7---2---4---7---2---9----7----7----9---7---14---12---|
    A|--7---2---4---5---0---9----x----9----7---9---14---12---|
    E|--5---0---2---x---x---7----5----7----x---7---12---10---|
    
    Tuning:…
  • Standard Tuning
    
    ------------------------------------------------------------------------------|
    ------------------------12----12----------------------------------------------|
    ----9h11-9----9----9----11h13----9-11-9h11-9----9h11v-------------------------|
    ----9h11-9h11-9h11-9h11----------------------11-----------9-------------------|
    ----9----9h11-9h11-9h11------------------------------9h11---11\9-7---7h9v-7---|
    -0-----------------------------------------------------------------9----------|
    
    
    ------------------------------------------------------------------------------|
    -----------------14-12-----------------5--------------------------14-12-------|
    -----------------13----11h13-11--------6---------9-9h11-----------13----------|
    -----------2-----13-------------14-----4---------9------11-----9--13----------|
    -----------------11----------------0-0-0----9/11----------9h11----11----------|
    -9/7-5-2h4---0-0-0---------------------5-0----------------------0-0-----------|
    
    
    ------------------------------------------------------------------------------|
    -----------------5-----5-------6---------7-----7-7-7--------------------------|
    -11h13-11--------6-------6-------7-----8-6h8---6-8-9-6-4----------------------|
    ----------14-----4---4-------5-------6-------9-----------6-4------------------|
    -------------0-0-0-------------------------------------------7-5--------------|
    -----------------5-5------/6------/7-----------------------------/10-10-------|
    
    
    -10----10--------------------0---------------0-------------7---5---3----------|
    -10h12-10-----------------10---10---------10---10--------------------3-3-3----|
    ----------11-9---------12---------12---12---------12\---/7---5---4---4-4-4----|
    ---------------12----0---------------0-------------------------------5-5-5----|
    ------------------------------------------------------------------------------|
    ------------------10--------------------------------/3------------------------|
    
    
    ---------------------------12^------------------------------------------------|
    -----6-6-------5-----------12^------------------------------------------------|
    -----5-5-------4h6-----------------------9---------9----9----9----------------|
    ---------8-7---7-------------------------9h11-9----9--------------------------|
    -----------------------7------------------------12---12-9h11-7h9-7-----7------|
    -5/6---------0------/9---0----9-12-9-7-5---------------------------7h9---0----|
    
    
    -------12--------------------------------------12---12------12-12-12----------|
    -12-14----15-12---------------------------------------------------------------|
    ---------------14/16-14-12----12-14h15p14------12---14------14-14-14-12h13----|
    ---------------------------14---------------14-----------14-------------------|
    ------------------------------------------0-----------------------------------|
    --------------------------------------------------12---0-------------0--------|
    
    
    ------------------------------------------------------------------------------|
    -------------------------------------------------------------------17-15------|
    ----------------------12----12-14/16-16-14-14-12----12-14/16-16-16-------16---|
    -14-------------11-14----14----------------------14---------------------------|
    ----14-12-11-14---------------------------------------------------------------|
    ------------------------------------------------------------------------------|
    
    {This…
  • Capo 5
    h- Hammer on
    p- Pull off
    ~- Let ring while you play the rest
    
    1
    e--X--X---X--X-|    
    b--3--3---3--3-|  
    G--0--0---0—-0-| 
    D--0--0---0--0-|
    A--2--3---0--X-|    
    E--X--X—0h2--3-|   
    
    2
    e--X--X--X--X--X—--2p0-----|
    b--3--3--3--3—-3~-------3--|
    G--0--0--0--0—-0~----------|
    D--0--0--0--0—-0~----------|
    A--3--2--0--X—-X-----------|
    E--X--X--X--3—-2~----------|
    
    3
    e--X--X--X--X----X----X----X----X----X--X--|
    b--3--3--3--3----3----3----2----3----2--3--|
    G--0--0--0--0----2----2----2----2----2--0--|
    D--X--4--2—-0----0----0----2----0----2--0--|
    A--X--X--X--X----X----X----0----X----0--X--|
    E--X--X--X--X----2----3----X----X----X--3--|
    
    4…
  • Intro
    D#  Gm  G#
    
    
    Verse:
    D#           Gm        G#
    Beautiful, I watch you try
    D#               Gm             G#
    To see yourself through others' eyes
    D#                Gm     G#
    The mirrors are a losing game
    Cm…
  • Intro:
    A   F#   (x3)
    A   D   E
    Verse 1:
                    A                  F#      A                     F#
    Would you be the wind        to blow me home
    A                                F#         A…
  • This are the chords that you need to know:
    
    C               x32010
    G               3x0033 He sometimes plays(3x0003)>>(3x0013)
    F               1x321x
    Dm              xx0231
    Cadd9           x32033
    Em              x22000
    Dm(add9)/A…
  • Capo 2nd Fret
    
    G(2) is 320010
    I think he adds G#(2nd fret 1st sting) in the bass to the C chord sometimes.
    
    [Intro]          
    C
    
    [Verse]
                 C
    Your love is bright as ever
         C
    Even in the shadows…
  • Drop D tuning
    *Chords played with the thumb on low E string. This song can be played with or without a 
    In the concert, he plays without a pick.*
    
    e--------------------------------------|
    b--------------------------------------|
    g----7--------7~-----------------------|
    d-7h9-9h7-----x------------------------|
    a--------9h7--9~-----------------------|
    d-------------0~-----------------------|
    note:the…
  • Key:
    
    h -Hammer On
    p -Pull Off
    ~ -Vibrato
    / -Slide Up
    \ -Slide Down
    
    Intro
    
    e----------5--5------------|
    b----------5--6--3--3------|
    g----------5--5--5--4------|
    d------5-7-7--7--3--5------|
    a-(5)/7----------5--5------|
    E----------------3--3------|
    
    e---------------------------------|
    b---------------------------------|
    g---------------------------------|
    d---------------------------------|
    a-5/7-7\5--3--------3--5h7-3h5~---|
    E------------5-3-4h5--------------|
    This…
  • Standard E tuning Capo 4
    
    G
    Goodbye cold, goodbye rain
    G
    Goodbye sorrow, goodbye shame
    
    C
    I'm headed out west with my headphones on
    C                                              G
    Boarded a flight with a song…
  • Chords:
    
      Dsus2  Hm11  G7M    G6    A  Asus4   Em9  A7(11)
    e---0-----0------2-----0----0----0----0----0-------|
    H---3-----3------3-----3----2----3----3----3-------|
    G---2-----2------0-----0----2----2----0----6-------|
    D---0-----0------0-----0----2----2----4----5-------|
    A---x-----2------0-----0----0----0----2----0-------|
    E---x-----x------3-----3----x----x----0----x-------|
    
    Intro:…
  • This are the chords for the whole song.
    e-------------------------------------------------|
    b-------------------------------------------------|
    g-----------------------10------------------------|
    d------8-------10--------8------------------------|
    a------6--------8--------6------------------------|
    e------4--------6---------------------------------|
    
    Easiest…
  • E
    Goin down the road feelin bad
    A                         E
    Goin down the road feelin bad
    A                         E        C#m
    Goin down the road feelin bad, bad, bad
    E               B           E
    Don't Wanna be…
  • Tunning: Standard
    
    Verse
    |-00------------------|-33------------------| 
    |-22------------------|-33------------------| 
    |-22-----0h2-2p0------|-00--------2p0-------| 
    |-22--0h2-------2p0---|-00----0h2----2p0----| 
    |-00-2-------------3p0|-22-0h2----------2p0-|…
  • Verses
    
    E||------------------------------------|------------------------------------|
    B||--5----------------5----------------|--2----------------2----------------|
    G||--6----------------4----------------|--2----------------2----------------|
    D||--7----------------6----------------|--4----------------4----------------|
    A||------------------------------------|-------------------5----------------|
    E||--5----------------4----------------|--2---------------------------------|
    
    
    Chorus
    
    --2---------0----------------------------|-------------------||
    --2----5-3--2-----------------2-----2----|-------------------||
    --2---------1--4--2--1--2--4--------2----|-------------------||
    --4---------2--------2-----------4--4----|-------------------||
    ---------------------2--------------5----|-------------------||
    -----------------------------------------|-------------------||…
  • Tuning Standard
    
    e-------------------------------------------0--1--0--------------------|
    b--------1---0--1--0---1----1---1-----------1--1--1--3--1--------------|
    g--------0---0--0--0---2----2---0-----------0--2--0--0--0--------------|
    d-----2------0-----0---2----2---3---------2----------------------------|
    a---3--------2---------0--0------------3----------------3------0-2-----|
    e-------------------------------1--0-3---------------------0-3-----3---|
    
    e----------------------------------------------------------------------|
    b------------------------------------1---------------------------------|
    g----------0-------------------------0---------------------------------|
    d-----0h2-----0h2--0h2-2-0h1p0-------3---------------------------------|
    a---3------2-------0-----------3---------------------------------------|
    e--------------------------------0-1----0-3----------------------------|
    
    e----------------------------------------------------------------------|
    b----------------------------1--1-----1---1----------------------------|
    g----------------------------0--0-----0h2-0----------------------------|
    d-------/2-2--0-/2------0-------3---3-------3p2p0----------------------|
    a---3-3-------2-----/2--0--3----------------------3--------------------|
    e-------------------------------1--------------------------------------|
    
    e----------------------------------------------------------------------|
    b----------------------------------------------------------------------|
    g-----------0--0-0---------0-----0-------------------------------------|
    d-----1h2-3---------1h2-3----1h2---1h2---------------------------------|
    a---/3------2--------------0-----------3-------------------------------|
    e------------------------------------------1--0h3----------------------|
    
    e----------------------------------------------------------------------|
    b---------------------------------------------1---1--------------------|
    g------------------------------2--------------0h2-0--------------------|
    d-----0h2-2--0----0---0h2--0h2---0h1p0---0----3-----3-2-0--------------|
    a---3--------2--2---2------0-----------3---3--------------3------------|
    e---------------------------------------------1------------------------|
    
    e----------------------------------------------------------------------|
    b----------------------------------------------------------------------|
    g-----------0--0-0--------0-----0--------------------------------------|
    d-----1/2-3---------1h2-3---1h2---3-----2h3p2p0------------------------|
    a---/3------2----------------------------------3-0-3-------------------|
    e------------------------------------1------------3--------------------|
    
    e----------------------------------------------------------------------|
    b----------------------------------------------------------------------|
    g----------------------------------------------------------------------|
    d-----0h2--2-2--0-0---0h2-0h2--21p0------------------------------------|
    a---3-----------2----0--------------3----------------------------------|
    e------------------------------------1---0h3---------------------------|
    
    e----------------------------------------------------------------------|
    b----------------------------------------------------------------------|
    g-----------0--0-0--------0-----0--------------------------------------|
    d-----1/2-3---------1h2-3---1h2---1h2----------------------------------|
    a---/3--------------------------------3--------------------------------|
    e---------------------------------------1--0h3-------------------------|
    
    e----------------------------------------------------------------------|
    b--------------------------------1-------------------------------------|
    g------------------0-----0-------0-------------------------------------|
    d-----0h2-2-2-2--3-2--0h2p0-----------0-0h2p0-----0--------------------|
    a---3-----------------------3--0---0-3--------3---0--3-----------------|
    e-----------------------------------------------1----------------------|
    
    e-------------------------------------0--1--0--------------------------|
    b--------1---0--1--0---1---1----------1--3--1--3--1--------------------|
    g--------0---0--0------0---0----------0--2--0--0--0--------------------|
    d-----2----------------2---3----------2--------------------------------|
    a---3--------2---------0-----------3--3-----------3--------------------|
    e--------------------------1--0h3--------------------------------------|
    
    e----------------------------------------------------------------------|
    b----------------------------------------------------------------------|
    g----------------------------------------------------------------------|
    d----------------------------------------------------------------------|
    a--------0--2----------------------------------------------------------|
    e---0h3--------3-------------------------------------------------------|
    
    e---0----0---------3-3-------------------------------------------------|
    b---1--3------0h1--1-1--1---1---1--------------------------------------|
    g---0--0------0----0-0--0---0h2-0--------------------------------------|
    d---2---------2----2-2--3--3------2p0----------------------------------|
    a---3--2----0------0-0----------------3--------------------------------|
    e-----------------------1----------------------------------------------|
    
    e--0--1--0-------------------------------------------------------------|
    b--1--3--1--3--1-------------------------------------------------------|
    g--0--2--0--0--0-------------------------------------------------------|
    d--2-------------------------------------------------------------------|
    a--3-----------3------0--2---------------------------------------------|
    e-----------------0h3-------3------------------------------------------|
    
    here…
  • Intro
    
    e-----------------------------------------0-------------0---|
    b-----4---------2-------(4)---------------0-------------0---|
    g-----4h6p4-----3h4p3----4-----4----------6----------9/11---|
    d-----6----6----4----4---4-----4----------7----------7/-9---|
    a------------------------2--/6------------x-----7-9--9/11---|
    e---4---------2------------------0-/4-8---5--/9---------0---|…
  • G           A7              C
    When you're dreaming with a broken heart
    The waking up is the hardest part
    You roll outta bed and down on your knees
    And for the moment you can hardly breathe
    
              Em   D/F# G G/H  C/G…
  • Tuning: Standard
    
    Intro / Verse / Outro 
    
       (On a sailboat I am...)
    e|--------------------------------------------------------------|
    B|----------------------------------------------9-----9p8-------|
    G|-12-----12------15-----15p13------8-----8-----8-----8---------|
    D|-13-----13------13-----13---------8-----8-----10----10--------|
    A|-13-----13------15-----15---------10----10----8--8--8---------|
    E|-11-11--11-11---13-13--13---------8--8--8--8------------------|
    
    e|--------------------------------------------------------------|
    B|--------------------------------------------------------------|
    G|-12-----12------15-----15p13------8-----8--8---7----7---------|
    D|-13-----13------13-----13---------8-----8--8---8----8---------|
    A|-13-----13------15-----15---------10----10-10--8----8---------|
    E|-11-11--11-11---13-13--13---------8--8---------6-6--6-6-------|
    
    Chorus…
  • Standard tuning.
    
    
            A                 D
    Now the cover of Rolling Stone
              A                   D
    Ain't the cover of a Rolling Stone
            A            D
    And the music on my radio
          A…
  • Capo 4th fret
    
    Part 1: Verse A
    
    e-----3-----3----3----------------------3------3-----3-----------------------|
    b-----3-----3----3---2-(3-2)------------3------3-----3---3---2--(2h3--3p2)---|
    g-----0-----0----0---2-(2-2)------------0------0-----0---2---2--(2----2--)---|
    d--------------------2---------(x2)----------------------0---2--(2h4--4p2)---|
    a---2---2h3----------0----------------2----2h3-----------x---0---------------|
    e--------------3-----------------------------------3-----2-------------------|
    
    Part…
  • intro (clean guitar) (guitar 2)
    ------3-3-3-3----8--8--8--8----|
    -3-3--5-5-5-5---10--10-10-10---|
    -5-5--5-5-5-5---10--10-10-10---|
    -5-5---------------------------|
    -------------------------------|
    -------------------------------|
    
    intro…
  • Standard Tuning
    Notes: All low E notes played with thumb
           Entire song finger picked.
    
    
    Part A:  intro
    
    e-----------------------------|
    b---8--------8----4-------4---|
    g---9--------9----5-------5---|
    d---7--------7----3-------3---|
    a---8------8------4-----4-----|
    e-----8-10----------4-6-------|
    
    He…
  • CHORDS:
    
    (C) No, I've not seen you this way (F) before
    (G7) Standin' a mess at my (C) door (G)
    (C) Well, it took you so long
    But you (C7) finally (F) found
    You're (C) no one 'til (G7) someone lets you (C) down
    You…
  • Intro:
    A7 - Bm7 - C#m7
    
    Verse 1:
    AM7      Bm7   C#m7...
    Staying home alone on a Friday
    AM7      Bm7   C#m7...        
    Flat on the floor looking back
        F#m
    On old love
        Dadd9
    Or lack thereof
    
    (above same for other verses)...
    
    Chorus:
    AM7…
  • Tuning: Standard, Capo 3rd Fret
    
    
    e|---------------------------------------------------------------------------|
    B|--3--------3-----3-3--2------2h3--------3p2---0-----0-3---2-----2h3--------|
    G|-----2-----0-----0-2--2------2---------2------0-----0-2---2-----2----------|
    D|--0---0--------------------2----------0------------------------2-----------|
    A|----------------------0---0-------------------------------0---0------------|
    E|--------0--3-----3-2----------------3---------3-----3-2--------------------|
    
    e|---------------------------------------------------------------------------|
    B|-----3p2----0-------0------0-3----2----2h3-------3p2----0------------------|
    G|----2-------0--------------0-2----2-------------2-------0---0---0----------|
    D|---0------------x-------0-------------0--------0--------------x------------|
    A|----------------------------------0--0-------------------------------------|
    E|--2-------3-----------3----3-2---------------2--------3-----------3--------|
    
    e|---------------------------------------------------------------------------|
    B|--0--3--2----2h3-----------------------------------------------------------|
    G|--0--2--2----2-------------------------------------------------------------|
    D|------------0--------------------------------------------------------------|
    A|--------0--0---------------------------------------------------------------|
    E|--3--2---------------------------------------------------------------------|
    
    e|---------------------------------------------------------------------------|
    B|--3--------3---3------3-----3--3-----2------x/3----------------------------|
    G|--2--------0-----0----------0--2-----2--2---x------------------------------|
    D|------0-x----------x--------------x-------2--------------------------------|
    A|----------------------------------x--0------x------------------------------|
    E|--2-----x--3-------x-----3--3--2-------------------------------------------|
    
    e|---------------------------------------------------------------------------|
    B|--3--------0----------0-----0--3-----2------x/3----------------------------|
    G|--2--------0---0------------0--2-----2--2---x------------------------------|
    D|------0-x--------0-x--------------x-------2--------------------------------|
    A|----------------------------------x--0------x------------------------------|
    E|--2-----x--3-------x-----3--3--2-------------------------------------------|
    
    e|-----------3--------3-------3--2-------------------------------------------|
    B|--3--------3--3-------------3--3-----2------x/3----------------------------|
    G|--2--------0----0-----------0--2-----2--2---x------------------------------|
    D|------0-x---------x---------------x-------2--------------------------------|
    A|----------------------------------x--0------x------------------------------|
    E|--2-----x--3------x------3--3--2-------------------------------------------|
    
    e|---------------------------------------------------------------------------|
    B|--------3p2---0-------------0------0--3------2------x/3--------------------|
    G|------2-------0----0---------------0--2------2--2---x----------------------|
    D|----0----------------0--x----------------x--------2------------------------|
    A|-----------------------------------------x---0------x----------------------|
    E|--2---------3-----------x------3---3--2------------------------------------|
    
    Bridge
    
    e|---------------------------------------------------------------------------|
    B|--3--3--3--3--3--3--3--3--3--3--3--2--2--2--2--0---------------------------|
    G|--2--2--2--0--0--0--0--0--2--2--2--2--2--2--2--0---------------------------|
    D|---------------------------------------------------------------------------|
    A|-----------------------------------0---------------------------------------|
    E|--2-----2--3--------------2-----2------------------------------------------|
    
    e|---------------------------------------------------------------------------|
    B|--3--3--3--0--0--0--0--0--3--3--3--2--2--2--2--0---------------------------|
    G|--2--2--2--0--0--0--0--0--2--2--2--2--2--2--2--0---------------------------|
    D|---------------------------------------------------------------------------|
    A|-----------------------------------0---------------------------------------|
    E|--2-----2--3--------------2-----2------------------------------------------|
    
    ************************************
    
    |…
  • Riff
      G                Cadd9       D         G         Cadd9
    e|-----3--------3---------------2h3-2h3-----------3-----------3----|
    B|-------3--------3-------------------------------3-----------3----|
    G|------------------------0-----------------0-----------0----------|
    D|--------------------------0-----------------0------------2-------|
    A|---------------------3------------------2-----------3------------|
    E|-3---------3-----------------------------------------------------|
    
    Verse…
  • Tuning: Standard
    
    Key:
    
    x -Mute
    
    Intro
    
    e------(3)(3)------------------|
    b--3-3--3--3--3--3--3--2~------|
    g--2-2--0--0--2--0--2--2~------|
    d--0-0--0--0--0--0--0--2~------|
    a--x-x--x--x--x--x--x--0~------|
    E--2-2--3--3--2--3--2----------|
    Play…
  • Standard Tuning, no capo
    
    This is the live version with Jay-Z at the Answer The Call Benefit in Madison Square Garden
    
    * try not to take the tab too literally. its best to play it with your own style.
    ** In case you'll…
  • Key:
    
    / -Slide Up
     -Slide Down
    h -Hammer On
    p -Pull Off
    ~ -Vibrato
    x -Muted String
    
    
    Intro 
    
    e--------------------------------------------------------------------------
    b-/9--------------------------------3-----3--------------------------------
    g-/9--11-9--------------------------2-----2-------7---7h9------------------
    d-----11-9-------9------------------0--2--0----/9---9-----9/7p5---7--------
    a------------/11---11/9--7----9---------------------------------7---7------
    E---------------------------9---0~--------3--------------------------------
    
    
    e--------------------------------------------------------------------------
    b--------------------3~--3-----3----------------12----9--------------------
    g--------------------2~--2-----2---------9---------11---11-11p9-----9------
    d--5h6---------------0~--0--2--0-------9----11-------------------11---11--
    a-------7p5----7-------------------9h11------------------------------------
    E------------7---0~------------3------------(9)----------------------------
    
    
    e---------------------------------------------------------------------------
    b-------------------------------/9------------------------------------------
    g--------9----------------------/9--11-9--------9---------------------------
    d--9--------------------------------11-9--------9---------------------------
    a--9h11-----9h10p9-7-9-7-------------------9h11---9h10p9-7-------7---9-----
    E-------------------------9/0------------------------------9/7-0-----9-0---
    
    
    e----------------------------------------------------------------
    b--3-----3--------8--------------------------3-----3~---3~-------
    g--2-----2------7---9-7----7-----------------2-----2~---2~-------
    d--0--2--0---/9---------/9---97-5-----------0--2--0~---0~-------
    a----------------------------------7-5---------------------------
    E--------3-----------------------------7-0~-------------2~-------
    
    
    
    Verse…
  • Intro
    
    e---------------------------------------------------------------------
    b---------------------------------------------------------------------
    g--------------------------------------------7------7-----------------
    d--9----9-------9-----------------(x2)---7------------------------(x2)
    a--9h11----9h11-----9--11--9-------------7h9----7h9----7--9--7--------
    e--0--------------------------12---------0----------------------10----
    
    e-------------------------
    b-------------------------
    g-------8------8h9----9---
    d---------9----9------7---
    a--------------------/5---
    e---/9-------9------------
    
    
    Part…
  • Intro
    
    e---7b--7b------ -----------------------
    b---8b--8b------ ------9-----9--12---5--
    g-----------9--- ------9-----9--11---7--
    d--------------- ------9-----9---9---7--
    a--------------- -----------------------
    e---------------…
  • The song is played with capo on 4th fret
    the cords are
    
    E|-3-0-0-0-0-3-0-                        E|-3-0-0-0-2-0-0-0-0-0-
    B|-1-1-1-0-1-1-1-                        B|-1-1-1-0-1-0-1-3-5-3-
    G|-0-0-2-0-2-0-0-…
  • e|----3----|
    B|-0~-3----|
    G|----0----|
    D|----0----|
    A|----2----|
    E|----3----|
    
    e|----15\\--6^--3--|---3----------------------|
    B|-----------------|-----6p3----3-3-----------|
    G|-----------------|---------5----------------|
    D|-----------------|----------------5-3-0-----|
    A|-----------------|--------------------------|
    E|-----------------|--------------------------|…
  • D (drop high E to open string where appropriate)
    Waiting on the day 
    C                           D
    When my thoughts are my own
    C                          D
    When this house is my home
                           A
    And planes…
  • VERSE 1
    
    Eb
    River's strong, you can swim inside it
    You can string some lights up here beside it
                                                                                  
    G#…
  • Drop D Tuning
    Finger picked and strummed
    
    
    Part A: intro, verse, and chorus
    
    e----x----x----
    b----5---10----
    g----5---10----
    d----3----8----
    a----x----x----
    d----3----8----
    
    
    Part B: "a reason for the rain"
    
    e----x---x----
    b----6---6----
    g----6---6----
    d----8---5----
    a----x---6----
    d----8---x----
    
    
    Part…
  • Chords 
    
    Capo 6
    
    
     C                      E             F
    Walt Grace, desperately hating his whole place
                G         Am
    Dreamed to discover a new space
               G        F
    And buried himself alive…
  • Intro
    
    e------------------------------------------------------------------|
    b------------------------------------------------------------------|
    g---------9h11-11-11--9h11-11-11--------------9-----9--9-----------|
    d---9-----9-----------9------------(...)------9h11-11--9-----------|
    a---9h11--------------------------------------------------9h11-----|
    e---0--------------------------------------0-------------------0---|
    
    
    First…
  • Capo 4th fret
    
    Intro/Verses/Chorus
    
    e-----0--0--0--0--0-----0------0---|
    b-----0--0--0--0--0-----1------1---|
    g-----0--0--0--0--0-----0------0---|
    d-----0--2--3--2--0-----0h2----3---|
    a-----x--x--x--x--x---3-3------x---|
    e---3-3--3--3--3--3----------1-1---|
    
    
    Variation:
    
    e-----0--0--0--0--0-----3-----3---|
    b-----0--0--0--0--0-----1-----1---|
    g-----0--0--0--0--0-----0-----0---|
    d-----0--2--3--2--0-----2-----3---|
    a-----x--x--x--x--x---3-3-----x---|
    e---3-3--3--3--3--3---------1-1---|
    
    
    "Is…
  • e|-----------------------------------------------------------------------------|
    B|------12-12-12-12--12--12---10h12p10--10--11\10-8---8-8/10\5---5-------10----|
    G|------------------------------------12------------------------5-5------11----|
    D|-----------------------------------------------------------------------------|
    A|---/10------9----------------------------------------------------------------|
    E|--------------------12------10-----------8--------7----------5------/10------|…
  • Chords:
    
             E
    e|-----------------|
    B|---------9-------|
    G|---------9-------|
    D|---------9-------|
    A|------7----------|
    E|-----------------|
    
             A
    x|-----------------|
    B|-------5---------|
    G|---------6-------|
    D|-----------7-----|
    x|-----------------|
    E|-------5---------|…
  • Second Guitar
    Main Riff
    e|------------------------------------------------------|
    B|------------------------------------------------------|
    G|------------------------------------------------------|
    D|------------------------------------------------------|
    A|---7--7--x-------5------------------------------------|
    E|-----------4-5-6--------------------------------------|
    
    Lead…
  • Tuning: EADGBe
    John uses a clean delay effect for this (just make sure the delay is low)
    
    Intro/Verse
    e|---------------------------------------------------------------------------|
    B|---------------------------------------------------------------------------|
    G|--------------------------------11~----------------------------------------|
    D|----------7~---------9~---------11~-----------9~---------------------------|
    A|----------5~---------7~----------9~-----------7~---------------------------|
    E|------3~~~~~-----5~~~~~------7~~~~~-------5~~~~~---------------------------|
    
    Chorus…
  • capo 2, all chords relative to capo
    
    Intro G, A7, Em7, C2  G*, A7, Em7, C2   
    G            Bm*
    Staying home alone on a Friday 
      G           Bm*         
    flat on the floor looking back 
    F
    on old love
    F/C  F/C*
    or lack thereof…
  • Tuning: EADGBe (standard)
    
    
    Intro / Verse
    
    e:---------------------------|
    B:-----10----------12--------|
    G:--------7-----------12-----|
    D:----------5------------10--|
    A:--------------0~-----------|
    D:--0~-----------------------|
    
    
    "outside…
  • Tuning: standard
    
    Intro
    
    e|-------------------|   --3--|
    B|-------------------|   --3--|
    G|----------6--------|   --4--|
    D|----5-7------8--7--|   --3--|
    A|--5-----5---5--5---|   --5--|
    E|-------------------|3x --3--|
    
    
    
    Verse…
Наверх