Аккорды «Journey»

Journey
Эта команда из Сан-Франциско была создана в 1973 году бывшими участниками "Santana" Нилом Шоном (р. 27 февраля 1954; гитара) и Грегом Роули (клавишные). В оригинальный состав "Journey" также вошли Росс Вэлори (р. 2 февраля 1949; бас, экс-"Frumious Bandersnatch"), Джордж Тикнер (ритм-гитара, вокал; экс-"Frumious Bandersnatch") и Прэири Принс (р. 7 мая 1950; ударные, экс-"Tubes"). Свой первый концерт группа отыграла в канун Нового года перед 10000-й аудиторией, а уже на следующий день "Journey" выступали… Читать полностью... Эта команда из Сан-Франциско была создана в 1973 году бывшими участниками "Santana" Нилом Шоном (р. 27 февраля 1954; гитара) и Грегом Роули (клавишные). В оригинальный состав "Journey" также вошли Росс Вэлори (р. 2 февраля 1949; бас, экс-"Frumious Bandersnatch"), Джордж Тикнер (ритм-гитара, вокал; экс-"Frumious Bandersnatch") и Прэири Принс (р. 7 мая 1950; ударные, экс-"Tubes"). Свой первый концерт группа отыграла в канун Нового года перед 10000-й аудиторией, а уже на следующий день "Journey" выступали перед 100000 зрителями "Crater Festival", проходившем на Гавайях. В феврале 1974-го Принс возвратился в "Tubes" и был заменен ветераном ударных Эйнсли Данбаром (р. 10 января 1946). Поначалу группа исполняла прог-джаз-рок с обильными сольными импровизационными, что и отразилось на трех первых альбомах, сделанных для "Columbia Records". В апреле 1975-го, после появления на свет дебютного диска "Journey", Тикнер решил завязать с музыкой и подался в медицину. Короткое время его замещал Роберт Флейшман, а чуть позже к группе присоединился экс-вокалист "Alien Project" Стив Перри (р. 22 января 1953). На альбоме "Infinity" команда по настоянию своего продюсера Роя Томаса Бейкера переключилась на средней тяжести помп-рок с незначительным влиянием клавишных, и результат не заставил себя ждать. Работа имела огромный успех: она достигла 21 позиции в чартах "Billboard" и получила платину. Данбар, однако, остался недоволен новым стилем группы и ушел в "Jefferson Starship", а его сменил Стив Смит (р. 21 августа 1954). Следующий альбом, "Evolution", принес "Journey" попадание в штатовский Топ 20 с композицией "Lovin', Touchin ', Squeezin'" (№ 16 в июле 1979-го). За ним последовал двойной концертник "Captured", удививший многих критиков разительным отличием от студийных выпусков (группа играла довольно приличный хард-рок). Этот альбом занял уже девятую позицию в национальных хит-парадах. После его выхода команду покинул один из ее основателей – Роули, а на его место был принят Джонатан Кэйн (р. 26 февраля 1950), ранее игравший с "Babys". С приходом Кэйна саунд значительно изменился и в музыке "Journey" все явственнее зазвучали элементы арт-рока. Группа достигла пика славы с выходом "Escape", занявшим первое место в хит-парадах и продержавшимся в чартах более года. Альбом сопровождался тремя хит-синглами, "Who's Crying Now" (№ 4, июль 1981), "Don't Stop Believin'" (№ 9, октябрь 1981) и "Open Arms" (№ 2, январь 1982). Следующий диск, "Frontiers", также имел большой успех - он оставался на 2-й позиции в "Billboard" в течение девяти недель и достиг 6-й строчки в британском чарте. После этого в деятельности "Journey" наступил значительный перерыв, прерванный только в 1985 году выпуском сингла "Only The Young". В дальнейшем в коллективе начались трения, в результате чего состав группы сократился до трех человек: Шон, Кэйн и Перри. При участии сессионных музыкантов - Рэнди Джексона (бас), Боба Глауба (бас), Майка Берда (ударные) и Ларри Лондина (ударные) – был записан альбом "Raised On Radio", достигший 4 позиции в штатовских хит-парадах. После тура в его поддержку измученный гастролями и семейными проблемами Перри решил удалиться, и это послужило одной из причин роспуска "Journey". Реюнион группы произошел десять лет спустя при участии Перри, Шона, Смита, Кэйна и Вэлори. Выпущенный ими альбом "Trial By Fire" дебютировал на третьей строчке, однако не за горами были очередные кадровые перестановки. В 1997-м Смита сменил Дин Кастроново (экс-"Bad English"), а место ушедшего по состоянию здоровья Перри занял Стив Огери (р. 30 января 1959). Дебют этого вокалиста получился весьма удачным – саундтрек к фильму "Armageddon" куда вошла песня "Remember Me" в исполнении Огери, возглавил чарты "Billboard" и стал трижды платиновым. Весной 2001-го вышел альбом "Arrival", поддержанный успешным мировым туром. На следующий год для своих преданных поклонников коллектив выпустил EP "Red 13", а в 2003-м вместе с другими мелодик-рокерами "Styx" и "REO Speedwagon" команда стала участником "The Classic Rock Main Event Tour". В 2005-м "Journey" обзавелись собственной звездой на голливудской Аллее Славы, провели юбилейный тур и выбросили на рынок очередной студийный альбом. Во время американских гастролей в компании с "Def Leppard" Огери серьезно заболел, и в декабре 2006-го его место занял Джефф Скотт Сото. Скрыть...
Популярные аккорды Journey:
алфавиту | просмотрам | случайно
  • // =slide
    ^=bend half
    
      intro *palm muted clean
    
    
     1----------------------------------------------------------------|
     2----------------------------------------------------------------|
     3 ----------------4-4-4-4-4-4--6-6-6-6-6-6-----------------------|…
  • VERSE
    
    |--------------------------------------------------------------------------||
    |--------------------------------------------------------------------------||
    |----------------------x-x-x-5*-x-5*---------------------------------------||
    |-2--2--2-2-2--2--2-2--x-x-x----x------------------------------------------||
    |-2--2--2-2-2--2--2-2--x-x-x-x--x-x----------------------------------------||
    |-0--0--0-0-0--0--0-0------------------------------------------------------||
    
    Repeat…
  • Guitar
                                                                  
    E||-----------------------------|----------------------------|
    B||--6--------8--10------8------|--5--------5--6h5----3h5----|
    G||-----7------------10-----10--|-----5------------5------5--|
    D||--------7--------------------|--------5-------------------|
    A||--5--------7--8--------------|--3-------------------------|
    E||-----------------------------|----------------------------|…
  • Intro:
    
    Am, F, Dm, Em, A    (this is the pattern rtepeated through the verses)
    
    Verse:
    
    
    Am                 F                           Dm
      It's been a mystery and still they try to see
                  Em…
  • Intro :
    guitar 1 : (12 String Acoustic)
    e--3---6--6vv----6--6--5vv------------------------------------|
    b--4---6--6vv----6--6--6vv------------------------------------|
    g--3---7--7vv--x-7--7--5vv------------------------------------|
    d--------------x----------------------------------------------|
    a--------------x----------------------------------------------|
    e-------------------------------------------------------------|
    
    guitar…
  • Part Order:     Verse - Chorus - Outra Chorus - Verse - Chorus - Outra Chorus                    
    
    Verse 1
    
    	 Highway [D]run [Dadd9] [Dsus4] [D]
           Into the [Bm]midnight sun
           [G]Wheels go round and round…
  • Riff 1                                    Riff 2
    E|-------------------------|             E|-------------------------|
    B|--8p7--------------------|             B|----8p7------------------|
    G|------7------------------|…
  • Intro
              
              B- 11 11 11 9 7 11 9 6 
              
              Verse
              2
              4 
              5 6  8  8
                6  8  8
              
              
              chorus is the same as well…
  • Riff=  A-Asus4-A-Asus2-A
    
    Intro:  A Riff x4
    
    A                      Asus4 A                           F#m            G   A
    Yesterday was a good day,   it's after midnight and I've got you on my mind…
  • Intro
    2X      F#m        D
    
    F#m                                        D
    When I'm alone I keep replaying the look of love in your eyes.
    F#m                                      D
    When I miss home I swear I die every…
  • E               B
            I dont know why, theres an open flame
            A                     B
            burning in the game, its me you blame
            E            B
            i cant deny, it was a crime…
  • Intro:
    Em, C
    Em, D, G, Am, Em, D, G, Am, Em
    
    Verse 1:
    Em
       There's a state of grace that happens every day 
    C
       It's a feeling I thought lost of locked away 
    Em
       Another question to an answer that I know 
    C…
  • D                A           G/B   Bm           A              G 
        Lying beside you here in the dark, feeling your heartbeat with mine
        D                  A            G/B  Bm            A          G     
        Softly…
  • intro:
    
    --5--7--4--4----------------
    --5--9--7--5----------------
    --6--9--7--6----------------
    --7--9--7--6----------------
    --7--7--5--4----------------
    --5--x--x--x----------------
    
    --5--7--4--4----------------
    --5--9--7--5----------------
    --6--9--7--6----------------
    --7--9--7--6----------------
    --7--7--5--4----------------
    --5--x--x--x----------------
    
    chorus:
    
    --7--5--5--0-------------------
    --9--7--5--0-------------------
    --9--7--6--1-------------------
    --9--7--7--2-------------------
    --7--5--7--2-------------------
    --x--x--5--0-------------------
    
    --7--5--5--0-------------------
    --9--7--5--0-------------------
    --9--7--6--1-------------------
    --9--7--7--2-------------------
    --7--5--7--2-------------------
    --x--x--5--0-------------------…
  • Drum Intro Unison with guitar
    G------------------------------------|---------------------------------|
    D------------------------------------|-----------2--0----------0-------|
    A------------------------------------|-----------------4--2--4----4----|
    E------------------------------------|--0--3-4-------------------------|
    
    G----------------------------------------------------------------------|
    D---------------------------------2-0----------------------------------|
    A---2--0--2-----------------------------4--2--0--4--0-2----------------|
    E------------3--0--------0--3--4--------------------------3-0----------|
    
    G----------------------------------------------------------------------|
    D------------2--0--------------------------------------------2-0-------|
    A------------------4--2-----4-----2-------------------------------4----|
    E---0--3--4--------------4-----4-----4--3--0--------0--3-4-------------|
    
    Verse
    G-----------------------------|----------------------------------------|
    D-----------------------------|----------------------------------------|
    A---2--0--4--0--2--0-----0----|---0--0--0--0-----0--0--0--0-----0-0----|
    E---------------------3-------|----------------------------------------|
    
    G----------------------------------------------------------------------|
    D------------------4--5-------------------------------------5----------|
    A---0--0-----0--0-----------0--0--0--0-----0--0--0--0-----0-----0-0----|
    E----------------------------------------------------------------------|
    
    G----------------------------------------------------------------------|
    D---7-----4-5----------------------------------------------------------|
    A------0-----------0--0--0--0-----0--0--0--0-----4--0--5--0--7--0-3----|
    E----------------------------------------------------------------------|
    
    G----------------------------------------------------------------------|
    D------------------------------------------5--------7-----4-5----------|
    A---0-----0--0--0--0-----0--0--0--0-----0-----0--0-----0----------0----|
    E----------------------------------------------------------------------|
    
    G-----------------------------------------------------------------------|
    D----------------------------/12--12--1---------------------------------|
    A---0--0--0-----0--0--0--0------------------------0--0--0--0-0----------|
    E----------------------------------------3--3-4-------------------------|
    
    G----------------------------------------------------------------------|
    D---------------------5--------7-----4-5-------------------------------|
    A---0--0--0--0-----0-----0--0-----0-----------0--0--0--0-----0--0-0----|
    E----------------------------------------------------------------------|
    
    G----------------------------------------------------------------------|
    D----------------------------------------------------------------------|
    A---0--------0-----0-----0-----0-----0--0--0--0-----0--0--0--0----0----|
    E---------2-----2-----3----4-------------------------------------------|
    
    G----------------------------------------------------------------------|
    D---5--------7-----4-5-------------------------------------------------|
    A------0--0-----0-----------0--0--0--0-----0--0--0--0-----0--0--0-0----|
    E----------------------------------------------------------------------|
    
    0:36
    G---|------------------------------------------------------------------|
    D---|--------------2--0----------0-------------------------------------|
    A---|--------------------4--2--4-----4--2--0-2-------------------------|
    E---|-----0--3--4--------------------------------3--0--------0--3-4----|
    
    G----------------------------------------------------------------------|
    D---2--0-----------------------------------------2-0-------------------|
    A---------4--2--0--4--0--2-----------------------------4--2----4-------|
    E---------------------------3--0--------0--3--4--------------4----4----|
    
    G----------------------------------------------------------------------|
    D------------------------------2-0-------------------------------------|
    A---2--------------------------------4--2--0--4--0--2--0-----0----0----|
    E------4--3--0--------0--3--4----------------------------3-------------|
    
    G---------------------------------------------------------2-0----------|
    D---------------------------------------------------------------4-2----|
    A---0--0--0-----0--0--0--0-----0--0--0--0-----0--0--3-4----------------|
    E----------------------------------------------------------------------|
    
    G------0--------------------------------2-0----------------------------|
    D---4-----4--2--0--2--------------------------4--2--0--4--0-2----------|
    A---------------------3--0-----0--3--4--------------------------3-0----|
    E----------------------------------------------------------------------|
    
    G---------------2--0-----------------------------------------2-0-------|
    D---------------------4--2-----4-----2----------------------------4----|
    A------0--3--4--------------4-----4-----4--3--0-----0--3-4-------------|
    E----------------------------------------------------------------------|
    
    Chorus
    G------------------------------|---------------------------------------|
    D---2--0--4--0--2--0-----0-----|-----0--0--0--0-----0--0--0--0----0----|
    A---------------------3--------|---------------------------------------|
    E------------------------------|---------------------------------------|
    
    G----------------------------------------------------------------------|
    D---0--0--0-----5--5--5--4-----0--0--0--0-----0--0--0--0-----0--5-4----|
    A----------------------------------------------------------------------|
    E----------------------------------------------------------------------|
    
    G----------------------------------------------------------------------|
    D---0--5--4--0----0----------------------------------------------------|
    A---------------------3--3-----------------0--2--3-----3--3--3-3-------|
    E---------------------------1--1--2--2-3-------------------------------|
    
    G----------------------------------------------------------------------|
    D------------------------------------------------0--0--0--0-----0-0----|
    A---3--3--3--3-----3--0--3--0--3--0--4-5-------------------------------|
    E----------------------------------------------------------------------|
    
    G-----------------------------------------------------------------------|
    D---0--0-----0--0--0--0-----5--5--5--4-----0--0--0--0-----0--0--0--0----|
    A-----------------------------------------------------------------------|
    E-----------------------------------------------------------------------|
    
    G-----------------------------------------------------------------------|
    D------0--5--4--0--5--4--0-----0----------------------------------------|
    A---------------------------------3-----3--1-----1--1--1--1-----1--1----|
    E-----------------------------------------------------------------------|
    
    G-----------------------------------------------------------------------|
    D---------------------------0-------------------------------------------|
    A---1--1-----1--1--1--1--------3-----3--1-----1--1--1--1-----1--1--1----|
    E-----------------------------------------------------------------------|
    
    
    Intro…
  • Key: A maj
    
    
    Verse 1:
    
    A                 F#m       
      Lost in twilight, the memories
    
    D                   A
      Precious moments, you and me
    
    A                       F#m             
      We've been old friends, all…
  • Tuning: Standard
    
    
    This tune uses primarily D/C/G trougout the song.  
    It's very easy to play (except the solo)
    
    INTRO x2
    
        D    C                 D    C
    e|----3-0-------------------3-0--------------------|
    B|---3---1-----------------3---1-------------------|
    G|--2-----0-0-------------2-----0-0----------------|
    D|-0-------2-------------0-------2-----------------|
    A|------------2-2-2-2--------------2-2-2-2---------|
    E|-------------------3---------------------3-------|
    
    
    
    e|----3-0-------------------3-0--------------------|
    B|---3---1-----------------3---1-------------------|
    G|--2-----0-0-------------2-----0-0----------------|
    D|-0-------2-------------0-------2-----------------|
    A|------------2-2-2-2--------------2-2-2-2---------|
    E|-------------------3---------------------3-------|
    And…
  • INTRO     Repeat 3 times
    E--------------------1-0--------------------3-s-5----------------
    B------3------1----------1-------3-----1----------------3-----1--
    G----2------2--------------2---2-----2----------------2-----2----
    D--0------0------------------0-----0----------------0-----0------
    A----------------------------------------------------------------
    E----------------------------------------------------------------
    
    
    
    E--1-0-----------------------------------------------------------
    B------1-------3-----1-------------------------------------------
    G--------2---2-----2---------------------------------------------
    D----------0-----0-----------------------------------------------
    A----------------------------------------------------------------
    E----------------------------------------------------------------…
  • intro:
    
    -----------------------------------------------|
    --------7---------10----------10-8--7----------|
    --6-7-6-----6-7-6-----------7----------9-6-----|
    --------------------------9--------------------|
    -----------------------------------------------|
    -----------------------------------------------|
    
    -----------------------------------------------|
    --------7---------10---------10-8--7-----------|
    --6-7-6-----6-7-6----------7------------9-6----|
    -------------------------9---------------------|
    -----------------------9-----------------------|
    -----------------------------------------------|
    
    Verse…
  • Chords:
    
          E    B   C#m  F#m  A   G
        ----------------------------------
    e     0    2    4    2   0   3
    B     0    4    5    2   2   3
    G     1    4    6    2   2   0
    D     2    4    6    4   2   0
    A     2…
  • Key:  D  
    Intro:  D    A (sus)   Bm    G         D    A     G    
    
    Verse 1
    D       A    Bm            G
    Lord I know, Your name is Holy, Holy
    D       A             G
    Lord I know that I am saved
    D         A  Bm…
  • Intro: A, D
    
    Verse 1:
    A
    Caught up in the living... getting through each day
    When all your tomorrows become faded yesterdays
            D
    Are you slipping away
    A
    Blinded by schedules... rushing here and there
    Become…
  • D    F    C   Am7
    D    F    C
    
    
    D
           F         C         Am7         D      
    In the eyes of a woman
         F          C         Am7         D 
    In a world of desire
             F         C             Am7…
  • F C Bb
    F C Bb
    F C Bb
    Dm C Bb
    
    F   C       Bb
    Please come talk to me
    F       C         Bb
    Tell me what's on your mind
    F   C           Bb
    You say there's nothin' wrong
    A
    I know
    
    
    F    C           Bb
    It's been…
  • Standard tuning.
    
    
    b= bend
    r= unbend (release)
    h= hammer on
    p= pull off
    
    
    VERSE:
    
        I see your face at the movieeeees...
    
    E------1-------------------1-----------------|
    B-------4-------------------4----------------|
    G----3---3---------------3---3---------------|
    D---1------------------1---------------------|
    A--------------------------------------------|
    E--------------------------------------------|…
  • Intro         Line of fire  guitarist: Neil Schon            
    
    e-------------|
    b-------------|                             ^bend
    g-------------|
    d-7-7-7-8-8-8-|
    a-5-5-5-6-6-6-|
    E-------------|
    
    On this part its…
  • E 6 x8 4 x8 2 x8 0 x8
              A 8    4    2    0
              D 8    4    2    0
              
              solo
              B 7 9 13 4 2 9 12 1 3 6 7 9 10 11 11 10 18 3 7 2
              E…
  • Intro: Dsus2/F#  Bmadd11/G  A  D  Em7
    
    G                                              A          A5 G7M   G
     I've been thinking 'bout the times You walked out on me
    G                                              A…
  • 4/4 TIME @ 72 BPM (3 Min. 50 Sec.) in 'A'.
    
    Chords Used:
    -----------
                 GUITAR              KEYS
            E  A  D  G  B  e    Bass|  Chord
           ------------------   ---------------
    E    -  0  2  2  1  0…
  • Notation: p.m. = palm mute ^ = 1 1/2 step bend
            > = accent     * = half step bend
           ~~~  = vibrato bar + = whole step bend
           <5> = natural harmonic {4} = pinch harmonic
            v = whole step bend before…
  • INTRODUCTION (PIANO) C FFFF FF F C
    C                                G   C                           G
    OPENED MY EYES TO A NEW KIND OF WAY,ALL ...
    Bb         F    Fm    Eb             Bb     Bbm             C
    ARE YOU…
  • A     E          F#m         D    A            E             F#m            
    In the morning, sunlight shining The face in the mirror knows the crime
    A       E             F#m   A         E             F#m            
    Voices…
  • Verse 1:
    You know that my heart is true 
    G              A
       And I never lie to you 
    D    
       We try each and everyday 
    G                          A
       Still there's something in the way 
    G                   A…
  • Intro:
    e------------------------------------|-------------------|
    B------------------------------------|-------------------|
    G------------------------------------|-------------------|
    D------------------------------------|-------------------|
    A----------------2---4----4/5-4-2-0--|-----2----0-0------|
    E-15/---3---5------------------------|-3-----------------|
    
    Verse…
  • e|-----------------------|
    H|-----------------------|
    G|-----------------------|
    D|--9999-77777777-5555---|   |Em|D|D|C|
    A|--7777-55555555-3333---|
    E|-----------------------|
     |                       |
    e|-----------------------|
    H|-----------------------|
    G|-----7-9---7-9---7-9---|
    D|--99-----9-----9-------|
    A|-----------------------|
    E|-----------------------|
    
    e|------------------------------------|
    H|------------------------------------|
    G|------------------------------------|…
  • Em
            I, walk alone in the dark, without you
    
            And deep, in the shadows i run, without you
                 C             D                Em
            And here, here i stand the king of fools
                 C…
  • Intro
              E 2
              A   5    7     9
              d     4     7     9     repeat
              
              Verse 
              
              E 2
              A 5  7  9  repeat 6 times each
              D 4  7  9…
  • Opening Riff x4
    
    E|--------------------------------------------------|
    B|--------------------------------------------------|
    G|--------------------------------------------------|
    D|-------------------------------------3-2----------|
    A|-5-5557--7777-3333-111-5-5557-771-111-3-3---------|
    E|--------------------------------------------------|
    
    On…
  • Intro:
    Am, G/B, C, Dm, G
    Am, G/B, C, F, G
    Am, G/B, C, Dm, C/E, F, G
    Am, F, C, Dm, G
    
    Verse 1:
    Am                Em
       Tears that she kept from me 
    Am                   Em
       Somewhere there's broken dreams…
  • Tuning:
    
         E  E  E  E  E  E  E  E     E  E  E  E  E  E  E  E   
    E||--------------------------|--------------------------|
    B||-----8--6--8--------------|--------------------------|
    G||-----------------8--7--8--|-----7--5--7-----7--8--7--|
    D||--5-----------6-----------|--6-----------5-----------|
    A||--------------------------|--------------------------|
    E||--8-----------8-----------|--6-----------7-----8--7--|…
  • INTRO:
    (Piano, Synth, E Guitar, Bass, Drums – 130bpm)
    Am            F            G      Dm            F            G
    Am            F            G      Dm            F            G
    
    VERSE 1:
    Am            C…
  • CAPO 4
    
    Intro: G Em C D
    G
    A faded wedding photograph
    Em
    You and me in our first dance
    C
    Your eyes are closed 
                            D
    We're lost in one sweet embrace
    G
    Since those days the world has changed
    Em
    But…
  • Intro/Main riff:
    e--------------------|--------------------|
    B--------------------|--------------------|
    G------------5-------|---------2----------|
    D-5----2--5--5-------|-5----5--2--2-------|
    A-5----2--5--3-------|-5----5--0--2-------|
    E-3----0--3----------|-3----3--0--0-------|
    
    e--------------------|-------------------|
    B--------------------|-------------------|
    G------------5-------|-2---------5-------|
    D-5----2--5--5-----5-|-2------5--5-------|
    A-5----2--5--3-----5-|-0------5--3-------|
    E-3----0--3--------3-|--------3----------|
    
    Verse…
  • Key
    h	=	hammer
    \	=	slide
    ~	=	vibrato
    .	=	palm mute
    b	=	bend half step
    ()	=	note w/in pinch harmonic
    []	=	note w/in harmonic
    
    Intro
    ----------------------------------------|
    -7h8-7------------------------------8-5-|
    --------6h7-6---------------5---5-7-----|
    ---------------7-5---5--5-7---7---------|
    -------------------7--------------------|
    ----------------------------------------|
    
    ----------------------------------|
    -7h8-7----------------------------|
    --------6h7-6----9---7---6--------|
    ---------------7---7---7------\2--|
    ------------------------------\2--|
    ------------------------------\0--|
    
    Pre…
  • E 4 x8 6 x8 2 x8
              A 2    4    0
              D 2    4    0 
              
              solo
              B 8 9 17 4 3 9 28 1 4 6 7 9 10 12 14 12 18 3 7 2
              E                                                1415161716151415161514151617151411818181818…
  • e---------------------------------------------|
    B-15-14-12-14--15-14-12-14-15-14-12--12-14-15-|
    G---------------------------------------------|
    D---------------------------------------------|
    A---------------------------------------------|
    E---------------------------------------------|
    
    e---------------------------------------------|
    B-18-18-17-15-17--15-14-12-14--15-14-12-14-15-|
    G---------------------------------------------|
    D---------------------------------------------|
    A---------------------------------------------|
    E---------------------------------------------|
    
    e---------------------------------------------|
    B-14-12---------------------------------------|
    G---------------------------------------------|
    D---------------------------------------------|
    A---------------------------------------------|
    E---------------------------------------------|…
  • C   G     Am  Em       C    G       Em
    If he could hold her, so close in his arms...again
    Am  Em  Am   G
    If she could show him
    Am   G       Em Am       Am A  G
    The letter her heart forgot to send...why
    Em…
  • (Intro)
    e |---------------------------------------------------------------|
    b |---------------0h3vvv-----------------------------------0h3vvv-|
    g |-4-4p2-4-2-4-2--------4--4p2-4-2------------4p2-4-2-4-2--------|
    d |---------------------------------4v--2v--0---------------------|
    a…
  • Standard Tuning
    
    INTRO
    
       Asus2               Bsus2    
    
    E-|-0--0--------0--2-----0--0--------0--2--4-|
    B-|-0-----4--0--------0--0-----4--0----------|
    G-|-2--------------------4-------------------|
    D-|-2--------------------4-------------------|
    A-|-0--------------------2-------------------|
    E-|-x--------------------x-------------------|
    
    
    VERSE…
  • Intro:
    e-0--0--0--0-0--0-0--0--0-0-|
    B-0--0--0--0-0--0-0--0--0-0-|
    G-4--4--4--4-4--4-4--4--4-4-|
    D-4--4--4--4-2--2-2--2--2-2-|
    A-2--2--2--2-2--2-2--2--2-2-|
    E---------------------------|4x
    
    Intro solo:
    e------------------------------------------|
    B----------------------------------------9-|
    G------9b(11)r(9)b(11)-9b(11)---9---9-11---|
    D-9----------------------------------------|
    A------------------------------------------|
    E------------------------------------------|
    
    e--------------12---10p9----------|
    B-10---9-----------------12---10--|
    G----------9----------------------|
    D---------------------------------|
    A---------------------------------|
    E---------------------------------|
    
    e---------12b(14)r(12)b(14)-12b(14)---12---12/14/16-|
    B-12-----x------------------------------------------|
    G-------x-------------------------------------------|
    D---------------------------------------------------|
    A---------------------------------------------------|
    E---------------------------------------------------|
    
    e-16b(17)---16---12-------------------------------------------|
    B---------------------14---(14)b(15)r(14)---(14)b(15)r(14)----|
    G-------------------------------------------------------------|
    D-------------------------------------------------------------|
    A-------------------------------------------------------------|
    E-------------------------------------------------------------|
    
    Verse…
  • Capo 5
    
    
    C
    So young in love they couldn't wait
    Am
    Said their vows had to run away
    F                                   G
    Suddenly, they felt their lives had changed
    
    C
    They believed their hearts were strong
    Am
    Just…
  • Db   Ab            E       E/Bb
    Good morning girl, how you been?
    A            E     G       D
    Good morning girl, is love within?
    Db  Ab          E     E/Bb
    I see your face everywhere
    A  E              G           D
    I…
  • Intro:
    e-----8--|-10--12--10h12p10--8------8----|
    B-10-----|----------------------10-------|
    G--------|-------------------------------|
    D--------|-------------------------------|
    A--------|-------------------------------|
    E--------|-------------------------------|…
  • E 0    x8 
              A 2
              D 2
              G
              B
              E
              
              E 2    x4
              A 4
              D 4
              
              E 5   x4
              A 7
              D 7 
              
              solo…
  • C          Bb
    Winter and moonlight
    F       Fm            C     C Am G   
    It's an old-fashioned song
    C          Bb
    Julie's in blue jeans
    F   Fm           C    C Am G 
    Now her love has gone
    
    
    F        G…
  • Intro:
    e |--------------------------------------------------|
    b |--------------------------------------------------|
    g |--------------------------------------------------|
    d |0h2---0-0h2------0-----------------0-0h2--0-------|
    a…
  • E 5 x9  8   x9   3 x8 
              A 7     10       5
              D 7     10       5 
              
              chorus:
              E 3 x5  5 x5 0 x5
              A 5     7    2 
              D 5     7    2
              
              solo:…
  • A E F#m
    
    A       E       F#m
    Try and keep it simple
    A       E   F#m
    Not too far away
    G      Bm       A
    Movin' slow, so simple
    Bm     G        A
    Never felt this way
    
    
    A      E         F#m
    Movin' sweet, so simple
    A…
  • ^ = Pull off
    
    
    e|---------------------------------------------------3------------------------|
    B|-------7-^-5------------7---------------------------------------------------|
    G|-----7-------7----------------------7---------------------------------------|
    D|---7-----------7------7--7--------9---9----------5---5----------------------|
    A|-5------------------7------7----9-------9------5-------5--------------------|
    E|------------------5-----------7-----------7--3------------------------------|…
  • Intro – guitar 1:
    e-----3---2p0----------3---5---7----|
    B-------------3--------3------------|
    G----------------------0------------|
    D-----------------------------------|
    A-----------------------------------|
    E-3----------------3----------------|
    
    e-----3---2p0----------3---5---3----|
    B-------------3--------3------------|
    G----------------------0------------|
    D-----------------------------------|
    A-----------------------------------|
    E-3----------------3----------------|
    
    e-----3---2p0----------3-------5----|
    B-------------3------------3--------|
    G-----------------------------------|
    D-----------------------------------|
    A-3----------------3----------------|
    E-----------------------------------|
    
    Intro…
  • Intro
      Wx3
    |------------|-----------------||
    |------------|-----------------||
    |------------|-------------0-2-||
    |------------|-----------3-----||
    
    
    Verse I
    
    |-------------|--------------------------|
    |----------2--|-3--2-2-3-5---------------|
    |-3--2--0-----|------------5---------0-2-|
    |-------------|--------------3-(3)-3-----|
    
    
    |-------------|---------------------------|
    |-------------|--------------5-(5)--------|
    |-3--2--0-----|------------5-------5-0-2--|
    |----------0--|-1--0-0-1S3----------------|
    
    
    |---5-4-----2-----|-------------|------------5--(5)---7-8-|
    |---------------2-|-3--2--0-----|----------5--------------|
    |-3-----2-0-------|----------2--|-3----(3)----------------|
    |-------------0---|-------------|-------------------------|
    
    
    |-9--(9)-----------------------------||
    |----------10------------------------||
    |-------------10-----------------7---||
    |----------------8-(8)-9-10-(10)-----||
    
    
    Chorus…
  • Intro:
    Dm, F, C, G (2x)
    
    Verse 1:
    Dm                           F
       I've been waiting for the sky to clear 
              C                      G             Dm  F  C  G
    To get me out of here, to get me on my way and…
  • Intro:
    e--------|--------|----------|
    B--------|--------|----------|
    G--------|--------|----------|
    D-6------|-3------|-6-----8--|
    A-6------|--------|-6-----8--|
    E-4------|-1------|-4-----6--|
    
    Main riff:
    e--------------------|------------------|
    B-------8---9---11---|------------------|
    G---------8---8----8-|-10-8-----8---8-7-|
    D-10-10--------------|------8-6---8-----|
    A--------------------|------------------|
    E--------------------|------------------|
    
    e--------------------|------------------|
    B-------8---9---11---|-8----------------|
    G---------8---8----8-|---8---10-----8-7-|
    D-10-10--------------|-----8------6-----|
    A--------------------|------------------|
    E--------------------|------------------|
    
    e--------------------|------------------|
    B-------8---9---11---|------------------|
    G---------8---8----8-|-10-8-----8---8-7-|
    D-10-10--------------|------8-6---8-----|
    A--------------------|------------------|
    E--------------------|------------------|
    
    e--------------------|-----------------|
    B-------8---9---11---|-11----9-8-------|
    G---------8---8----8-|-----------10----|
    D-10-10--------------|-----------------|
    A--------------------|-----------------|
    E--------------------|-----------------|
    
    Verse…
  • Intro
              E 2
              A   4    5     7
              d     4     7     9     repeat
              
              Verse (palm muted)
              
              E 2
              A 4  5  7  repeat 6 times each
              D 4  7  9…
  • key: G
    Intro: G D C Em 
     
    Em 
    You should've been gone 
    G               D          C         Em 
    Knowing how I made you feel 
    And I should've been gone 
    G               D          C       Em 
    After all your words…
  • Intro:
    Em VII, Esus2, C7M  , Em
    C, Cadd9, Am, Dsus4
    
    Verse 1:
    Em VII          Esus2   
       Watchin' the sun come up
         C7M                  Em
    Like I've never seen it before
    C                       Cadd9
       I've…
  • Intro:
    e-12-13-15-15---------------|-12-13-15-15-----------------|
    B---------------13---13-----|--------------13---13/15-----|
    G---------------------------|-----------------------------|
    D---------------------------|-----------------------------|
    A---------------------------|-----------------------------|
    E---------------------------|-----------------------------|
    
    Verse…
  • Intro:
    D, A/C#, Bm, G
    D, A/C#, Gsus4, G
    
    Verse 1:
    C                 G/B  Am    F                    C
       From the first day... I envisioned myself with you 
                    G/B           Dm                 Bb
    It's…
  • Guitar I -Neal Schon
    
    Guitar I
    D#-----0----0----0----0----0----0----0----0----0----0----0----0-\
    A#--17---15---12---10---12---9----10---12---13---12---10---12--- \
    F#--------------------------------------------------------------…
  • Abm Cm Ebm
    Ab Db Dbm
    Abm D Eb
    A Eb
    
    
    Abm                      Eb
    It was just the month of May,
                    F#               Db
    Words got in my way, girl I'm so sorry
    E                      Abm
    So I'm reaching…
  • Intro:
    D, G (2x)
    
    Verse 1:
    D                    Bm 
       On this day to be standing here with you
    Em                     Asus4             A    
       There's no doubt, I know this love is true
    D                    Bm…
  • A
    You make me weak
    
    And wanna die
    D
    Just when you
    
    Said we'd try
    A	E	  G
    Lovin', touchin', squeezin'
    A
    Each other
    
    
    A
    When I'm alone
    
    All by myself
    D
    You're out
    
    With someone else
    A	E	  G
    Lovin', touchin', squeezin'
    A
    Each…
  • Intro: ( C F/A - Bb) x4
    
     C               F/A-Bb C                 F/A-Bb      C               F/A-Bb
    Walks like a lady,       with her tender charms, she moves like a lady,
     C               F/A-Bb    C…
  • Intro:Dadd9, Bm, Dadd9, A, Bm, C, D
    D When the lights Bm go down C in the city
    D And the sun shines Bm on the C bay
    D Do i wanna be there Bm in my C city? oooh
    Bm ooooo C ooooo D ooooo
    
    Repeat for Verse 1
    
    Bm It's sad G…
  • C             F
            Once in your life you love
           C             F
            Once in your life you try
           Bb
            The one youre holdin
                                        C
            Is the one that tears…
  • E 6 x8 2 x8 0 x8
              A 2    4    2
              D 2    4    2 
              
              solo
              B 8 9 17 4 3 9 28 1 4 6 7 9 10 12 14 12 18 3 7 2
              E                                                1415161716151415161514151617151411818181818…
  • CAPO 1st fret(optional but easier)
    
    How to play the Chords with a Capo
    
       C#    Fm7   Bbm   Ab   F#
    e  x      0     0    3    1
    B  1      3     1    3    1
    G  0      0     2    0    2
    D  2      2     2    0    3
    A…
Наверх