Аккорды Juanes - La Verdad

Добавлено: @romashka
Дата добавления: 31 Августа 2021г.
Рейтинг:
0.0
Просмотров: 92
Транспонировать - +
  Gm
1|--8s10--10--10---8-----------8--|--10--10---8-----------|
2|-10s11--11--11--10--11--11--10--|--11--11--10--11--11---|
3|--------------------12--12------|--------------12--12---|
  Gm
e|--8s10--10--10---8---------------8--|--10--11---8--10-----------|
B|-10s11--11--11--10--11--11--11--10--|--11--13--10--11--11--11---|
G|--------------------12--12--12------|------------------12--12---| 2x

Gm
Si me dices que me quieres
Gm
Dimelo de frente
Gm
Si me dices que me odias
Gm                  Cm
Dilo cuando no este yo
               Gm
No lo quiero saber

  Gm
e|--8s10--10--10---8-----------8--|--10--10---8-----------|
B|-10s11--11--11--10--11--11--10--|--11--11--10--11--11---|
G|--------------------12--12------|--------------12--12---|

Gm
Si te digo que ya se
Gm
Muy bien que tu me enganas
Gm
Si no tienes las agallas
Gm                 Cm
Para venir a decirlo
                Gm
No lo quiero saber

  Gm
1|--8s10--10--10---8-----------8--|--10--10---8-----------|
2|-10s11--11--11--10--11--11--10--|--11--11--10--11--11---|
3|--------------------12--12------|--------------12--12---|

Bb                    D5
No es nada facil olvidarte
D5
Pero lo voy a hacer

Gm             Gm
Si me miras de frente
C5
La   verdad
Gm
Solo flor de piel
Gm
Flor de piel,  flor de piel

1|--10----------10-10-----------|
2|--11-11-10-11-11-11-11-10-11--|
3|-----12-10-12-------12-10-12--|

Gm                Gm
Si te quedas despierta
C5
Pegate
Gm     Gm
Contra la pared, la pared

1|--10----------10-10-----------|
2|--11-11-10-11-11-11-11-10-11--|
3|-----12-10-12-------12-10-12--|

  Gm
1|--8s10--10--10---8-----------8--|--10--10---8-----------|
2|-10s11--11--11--10--11--11--10--|--11--11--10--11--11---|
3|--------------------12--12------|--------------12--12---|

1|--8s10--10--10---8---------------8--|--10--11---8--10-----------|
2|-10s11--11--11--10--11--11--11--10--|--11--13--10--11--11--11---|
3|--------------------12--12--12------|------------------12--12---|

Gm
Me pregunto si tal vez
Gm
Sabras lo que se siente
Gm
Me pregunto si algo de esto
Gm                Cm
Pasa por tu mente hoy
                Gm
No lo quiero saber
  Gm
1|--8s10--10--10---8-----------8--|--10--10---8-----------|
2|-10s11--11--11--10--11--11--10--|--11--11--10--11--11---|
3|--------------------12--12------|--------------12--12---|

Gm
Te pregunto si cuando
Gm
Me encuentras en la calle
Gm
Te pregunto si te atreverias
Gm        Cm
A mirarme no
                    Gm
No, no lo quiero saber
Bb                    D5
No es nada facil olvidarte
D5
Pero lo voy a hacer

Gm             Gm 
Si me miras de frente
C5
La   verdad
Gm
Solo flor de piel
Gm
Flor de piel,  flor de piel
Gm                Gm
Si te quedas despierta
C5
Pegate
Gm     Gm
Contra la pared, la pared

1|--10----------10-10-----------|
2|--11-11-10-11-11-11-11-10-11--|
3|-----12-10-12-------12-10-12--|

Gm      Bb                 C5
En el nombre de la mentira
      Bb                Gm
En el nombre de la razon
       Bb               C5
De tus besos del polvo seco
       Bb           Gm
De tus labios de cruel
      Bb           C5
Traicion no me rio
    Bb         Gm
Me causa pena
      Bb           C5
Me da lastima corazon

Gm             Gm*
Si me miras de frente
Fmaj7/C
La   verdad
Gm
Solo flor de piel
Gm*
Flor de piel,  flor de piel

1|--10----------10-10-----------|
2|--11-11-10-11-11-11-11-10-11--|
3|-----12-10-12-------12-10-12--|

Gm             Gm
Si me miras de frente
Fmaj7/C
La   verdad
Gm
Solo flor de piel
Gm
Flor de piel,  flor de piel

Gm                Gm
Si te quedas despierta
C5
Pegate
Gm     Gm
Contra la pared, la pared
Наверх