Аккорды Juanes - La soledad

Добавлено: @romashka
Дата добавления: 03 Сентября 2021г.
Рейтинг:
0.0
Просмотров: 60
Транспонировать - +
Am G6 F7 E7

Dm G C Am F E Am A7
1---------------------------------------------|
2---6~---3~---5~---1~---1/3-3-3/5-3-1-3/5-3~--|
3-7----4----5----2------2/4-4-4/5-4-2-4/5-4~--|

2-5-------5----------------------------------|
3--5-5p2---5-5p2--6-5-5p2--6-5-5p2-----------|
4----------------------------------5-2-------|
5--------------------------------------5-0---|

Dm           G
Cada cosa me recuerda a ti
C              Am
Tu recuerdo va donde yo voy
F              E
No he podido escaparme a salvo
          Am
del infierno
      A7
Que estoy viviendo ahora

Que te fuiste tan lejos de mi
Para otro mundo construir
Me cuesta tanto aceptar amor
     Am
Pero esto ya se acabo. Te digo.

Am6              Am   
La soledad es un tipo de veneno
Am6              Am  
Que entra despacio y quema
             E
Muy lento el corazon
E
Que no tiene remedio
Que no , que no,
E
Que no tiene remedio, que no,
                Am6   Am
Que no si tu no estas
   Dm
Mi soledad... 

  G C Am F E Am A7
1---------------------------------------------|
2---6~---3~---5~---1~---1/3-3-3/5-3-1-3/5-3~--|
3-7----4----5----2------2/4-4-4/5-4-2-4/5-4~--|

2-5-------5----------------------------------|
3--5-5p2---5-5p2--6-5-5p2--6-5-5p2-----------|
4----------------------------------5-2-------|
5--------------------------------------5-0---|

Cada cosa me recuerda ti
Tu recuerdo va donde yo voy
Cuantas cosas no daria por estar contigo,
Estar contigo ahora
Que te fuiste tan lejos de mi
Para otro mundo construir
Me cuesta tanto aceptarlo amor
Pero esto ya se acabo. Te digo.

Am6              Am   
La soledad es un tipo de veneno
Am6              Am  
Que entra despacio y quema
             E
Muy lento el corazon
E
Que no tiene remedio
Que no , que no,
E
Que no tiene remedio, que no,
                Am6   Am
Que no si tu no estas
Am6              Am   
La soledad es un tipo de veneno
Am6              Am  
Que entra despacio y quema
             E
Muy lento el corazon
E
Que no tiene remedio
Que no , que no,
E
Que no tiene remedio, que no,
                Am6   Am
Que no si tu no estas
   Dm
Mi soledad... Mi soledad... Mi soledad...

  G C Am F E Am A7
1---------------------------------------------|
2---6~---3~---5~---1~---1/3-3-3/5-3-1-3/5-3~--|
3-7----4----5----2------2/4-4-4/5-4-2-4/5-4~--|

2-5-------5----------------------------------|
3--5-5p2---5-5p2--6-5-5p2--6-5-5p2-----------|
4----------------------------------5-2-------|
5--------------------------------------5-0---|     x2
Наверх