Аккорды Капитан Гримм - Звёзды

Добавлено: @romashka
Дата добавления: 28 Марта 2021г.
Рейтинг:
0.0
Просмотров: 41
Транспонировать - +
       C#5
«До свидания» – всего лишь слабость
A5
Перед страшным словом «прощай».
B5
Не скучай!
          E5
Смотри на небо – недостигнутый рай.
     C#5         A5
Впереди осталась токмо из пустоты дверь.
B5                G#5           A5
Я привык тебя терять, потеря из потерь.
  B5    A5    B5
Один, один теперь...


C#5        A5       B5               E5
Я зажигаю звёзды – память на вечер, прощанье навечно.
C#5        A5      B5          G#5
Я зажигаю звёзды, я зажигаю своей зажигалкой.
C#5        A5       B5               E5
Я зажигаю звёзды – память на вечер, прощанье навечно.
C#5        A5      B5          G#5
Я зажигаю звёзды...


     C#5                    A5 
«Это сон, это игра, это неправда, это чепуха..!»
  B5               E5  
– Видно, боги тоже могут умирать.
  C#5       A5               B5
Умирая, отдают свои тела весне,
                 G#5
И на них бросают взоры безразличные
  B5    A5    B5
Одни они теперь...


C#5        A5       B5               E5
Я зажигаю звёзды – память на вечер, прощанье навечно.
C#5        A5      B5          G#5
Я зажигаю звёзды, я зажигаю своей зажигалкой.
C#5        A5       B5               E5
Я зажигаю звёзды – память на вечер, прощанье навечно.
C#5        A5      B5         G#5
Я зажигаю звёзды, я зажигаю и сам зажигаюсь.

Бой шестёрка
Первый куплет
e-----------------------------------------------------------------
B-----------------------------------------------------------------
G-----6-----6-----------------------------------------9-----9-----
D---6-----6-----6-----7-----7---------9-----9-------9-----9-----9-
A-4-----4-----4-----7-----7-----7---9-----9-----9-7-----6-----6---
E-----------------5-----5-----5---7-----7-----7-------------------

e-----------------------------------------------------------------
B-----------------------------------------------------------------
G-----6-----6-----------------------------------------------------
D---6-----6-----6-----7-----7---------9-----9---------6-----6-----
A-4-----4-----4-----7-----7-----7---9-----9-----9---6-----6-----6-
E-----------------5-----5-----5---7-----7-----7---4-----4-----4---
Наверх