Аккорды Kate Bollinger - You At Home

Добавлено: @romashka
Дата добавления: 08 Июня 2024г.
Рейтинг:
0.0
Просмотров: 9
Disclaimer: for the simplified version, strum the chords only, disregarding the tabs

[Intro]
(Listen to the original video for the picking pattern)
   A             D/A                 Em
e|-----6-----6---5---5---5-----5---|-----3-----3---3---3---3-----3---|
B|-----2-----2---3---3---3-----3---|-----7-----7---5---5---5-----5---|
G|-----2-----2---2---2---2-----2---|-----0-----0---0---0---0-----0---|
D|-----------------------4---------|---------------------------------|
A|-0-------0-----0---------0-------|-7-------7-----------------------|
E|---------------------------------|---------------0---------0---0---|


[Verse 1]
e|-----6-----6---5-----5-----5-----|-----3-----3---3-----3-----3-----|
B|-----2-----2---3-----3-----3-----|-----7-----7---5-----5-----5-----|
G|-----2-----2---2-----2-----2-----|-----0-----0---0-----0-----0-----|
D|---------------------------------|---------------------------------|
A|-0-0-0-0-0-0-0-0-0-0-0-0-0-0-0-0-|-7-7-7-7-7-7-7-------------------|
E|---------------------------------|---------------0-0-0-0-0-0-0-0-0-|
   A             D/A                  Em
      Time won't stop It's built like           wa-   ter       The

e|-----6-----6---5-----5-----5-----|-----2-----2---2-----2-----2-----|
B|-----2-----2---3-----3-----3-----|-----2-----2---2-----2-----2-----|
G|-----2-----2---2-----2-----2-----|-----2-----2---2-----2-----2-----|
D|---------------------------------|---------------------------------|
A|-0-0-0-0-0-0-0-0-0-0-0-0-0-0-0-0-|---------------------------------|
E|---------------------------------|-2-2-2-2-2-2-2-2-2-2-2-2-2-2-2-2-|
   A       D/A                      F#m
    two of us held together But it's      gold- en And it seems that The

(transitions from picking to strumming)
e|-----5-----5---5-----5-----5-----|
B|-----2-----2---2-----2-----2-----|
G|-----2-----2---2-----2-----2-----|
D|---------------------------------|
A|-0-0-0-0-0-0-0-0-0-0-0-0-0-0-0-0-|
E|---------------------------------|
   A
  waves   didn't stay


[Chorus]
D                            G
  Whatever it is I could get used to it
D                                       G
  A card in my wind I think you'll come back again
Em                     A
  It's me on the phone   It's me in the phone
Em                          A
  It's me at home then it's you at home

D        Edim7
  Me at home
D        Edim7
  Me at home
D        Edim7 D
  You at home


[Verse 2]
e|---------------------------------|---------------------------------|
B|---------------------------------|---------------------------------|
G|---------------------------------|---------------------------------|
D|---------------------------------|---------------------------------|
A|-0-0-0-0-0-0-0-0-0-0-0-0-0-0-0-0-|-7-7-7-7-7-7-7-------------------|
E|---------------------------------|---------------0-0-0-0-0-0-0-0-0-|
   A             D/A                  Em
          Heating up   It feels like         fi-   re           The

e|-----6-----6---5-----5-----5-----|-----2-----2---2-----2-----2-----|
B|-----2-----2---3-----3-----3-----|-----2-----2---2-----2-----2-----|
G|-----2-----2---2-----2-----2-----|-----2-----2---2-----2-----2-----|
D|---------------------------------|---------------------------------|
A|-0-0-0-0-0-0-0-0-0-0-0-0-0-0-0-0-|---------------------------------|
E|---------------------------------|-2-2-2-2-2-2-2-2-2-2-2-2-2-2-2-2-|
   A        D/A                       F#m
    two of us cling together But it's      dark- er than the clouds May not

(transitions from picking to strumming)
e|-----5-----5---5-----5-----5-----|
B|-----2-----2---2-----2-----2-----|
G|-----2-----2---2-----2-----2-----|
D|---------------------------------|
A|-0-0-0-0-0-0-0-0-0-0-0-0-0-0-0-0-|
E|---------------------------------|
   A
   leave the sky


[Chorus]
D                            G
  Whatever it is I could get used to it
D                                       G
  A card in my wind I think you'll come back again
Em                     A
  It's me on the phone   It's me in the phone
Em                          A
  It's me at home then it's you at home

D        Edim7
  Me at home
D        Edim7
  Me at home
D        Edim7 D
  You at home

P.S.:
if you are feeling like improvising you can add some bass line in the first 4 lines of the chorus:
  (1) 0h2h4 hammer-on on the 4th string 3 times
  (2) 0h2h4 hammer-on on the 4th string 3 times
  (3) 2h4h5 hammer-on on the 4th string 3 times
  (4) 2h4h5 hammer-on on the 4th string 3 times
Музыка не только фактор облагораживающий, воспитательный. Музыка – целитель здоровья (Бехтерев)
Мы стремимся к созданию контента, соответствующего всем нормам законодательства и уважающего интеллектуальную собственность. Мы также придаем большое значение тому, чтобы не задеть никого и не оскорбить чьи-либо чувства. Если у вас есть вопросы или претензии по размещенному материалу, пожалуйста, сообщите нам об этом.
Шрифт
-
0
+
Прокрутка
-
0
+
Стоп
Наверх