Аккорды «Kelly Osbourne»

Kelly Osbourne
Kelly Osbourne – самый популярный подросток 2002 года. Поднимаясь к вершинам славы в самой рейтинговой программе канала MTV - ''The Osbournes'', Келли Осборн, живое воплощение фразы ''fuck off'', стала самым популярным подростком 2002 года. Меньше, чем за полгода она успела покрасоваться на сотнях обложек журналов, в десятках ток-шоу, и даже дебютировала на сцене с кавер версией на песню Мадонны ''Papa Don't Preach'', сразу же ставшую ее хит-синглом. Нахальство в характере Келли нельзя убрать. Оно… Читать полностью... Kelly Osbourne – самый популярный подросток 2002 года. Поднимаясь к вершинам славы в самой рейтинговой программе канала MTV - ''The Osbournes'', Келли Осборн, живое воплощение фразы ''fuck off'', стала самым популярным подростком 2002 года. Меньше, чем за полгода она успела покрасоваться на сотнях обложек журналов, в десятках ток-шоу, и даже дебютировала на сцене с кавер версией на песню Мадонны ''Papa Don't Preach'', сразу же ставшую ее хит-синглом. Нахальство в характере Келли нельзя убрать. Оно стало козырем ее сценического образа, которому уже подражают миллионы. В отличие от своих ''сестер по сцене'' - Бритни или Агилеры, Келли представляет собой довольно-таки приземленную молодую особу, которая по мере взросления сталкивается с теми же проблемами, что и ее поклонники (правда, родители у нее немного отличаются от обычных). В этом и кроется причина того, что многим подросткам она симпатична. Дебютный альбом Келли будет состоять из 12 песен и будет ничем не хуже альбомов ее ''двинутого папашки''. Скрыть...
Популярные аккорды Kelly Osbourne:
алфавиту | просмотрам | случайно
  • intro
    --------------------------------------------------------------------
    --------------------------------------------------------------------
    -------------------------------------------------------------4------
    ---------4---5---------4---5--------4---5-------4----5-------4(x8)--…
  • Intro:
    ------------------------------------------------------------------------------
    ------------------------------------------------------------------------------
    ------------------------------------------------------------------------------
    ------------------------------------------------------------------------------
    -----6-6--8-8--10-10--8-8--6-6------------------------------------------------
    -9-9----------------------------9-9--8-8--------------------------------------…
  • a sharp      b3       b 5         b 7         4x
    
    A                           opend A
    I'm not here for you amusement
    
    A                          open A
    But I think one thing is clear
    
    A                         openA
    I see…
  • Standart Tunnig (EADGBE)
    
    You say,
                                A
    I should do it differently
     
    I don't
    Bm                 E
    Necessarily agree
    
    Stand up!
         C# 
    Sit down! 
    
    Be nice!
    A                             Bm     E
    Did…
  • Tuning:normal
    
    G|-- 4H6------------4H6-------------4H6-------------------------------------
    D|--------------------------------------------------------------------------
    A|----------4-4--------------4-4-----------4--------------------------------
    E|--------------------------------------------------------------------------
    
    G|---------------4----------------------------------------------------------
    D|--------4H6--------6-4H6------------------------------------/7-----------
    A|--4-----------------------------444--4446--44444447--44444----------------
    E|--------------------------------------------------------------------------
    
    G|----------------4---------------------------------------------------------
    D|----------4H6-------6--4H6------------------------------------------------
    A|-4444---------------------------6666666677777-----------------------------
    E|-----------------------------------------------00-------------------------…
  • A                                    D
    when i see you i forget about ash hall
    
    am                     A
    i dont feel you any more
    
    A                 D
    and dont i need you
    
    D                          A
    but i dont need nothin…
Наверх