Аккорды «King Adora»

King Adora
King Adora - рок-группа, образованная в Бирмингеме, Англия, в 1998 г. Группа выпустила дебютный альбом Vibrate You в мае 2001 г. и последующий Who Do You Love? в марте 2004 г. Состав: Мэтт Браун - вокал, гитара Мартин Нельсон - гитара, бэк-вокал Роберт Гриммит - бас Дэн Дабровски - барабаны King Adora - рок-группа, образованная в Бирмингеме, Англия, в 1998 г. Группа выпустила дебютный альбом Vibrate You в мае 2001 г. и последующий Who Do You Love? в марте 2004 г. Состав: Мэтт Браун - вокал, гитара Мартин Нельсон - гитара, бэк-вокал Роберт Гриммит - бас Дэн Дабровски - барабаны Скрыть...
Популярные аккорды King Adora:
алфавиту | просмотрам | случайно
  • Intro:
                                 with slide
    e-------3---2-3-----3-2-3-------------|
    B---------------3--------------11-12--|
    G-----0---0-------0------------11-12--|
    D---5--------------------------11-12--|
    A-------------------------------------|
    E-------------------------------------|
    
    G…
  • Inro Riff:
    
    e-----------------------------------------------------------------
    B-----------------------------------------------------------------
    G-----------------------------------------------------------------
    D--2-2-2-9-9-9-11-11-11-6-6-6-7-7-7-7-6-6-6-10-10-10-10-9-9-9-9---…
  • Verse 1:
    Am
    I will iritate you
    G
    I'd kill to imitate you
    F
    I feel so elevated 
    E
    by you
    
    
    Verse 2:
    Am
    Ace-face drag me into
    G
    your space, dim the lights I
    F
    can't face - elevated
    E
    by you
    
    
    Chorus:
    F
    I want a rock-star lover
    E
    I…
  • Intro:
                                 
    e------------------------|
    B------------------------|
    G-----11----9----9-------|
    D-----11----9----9-------|   x4
    A--------11---11---11----|
    E------------------------|
    
    
    Verse 1:
    C#m…
  • Chords:
    E5:  x799xx (type 1) and 022xxx (type 2)
    C#5: x466xx
    A5:  x022xx
    B5:  x244xx
    
    
    Intro (notes coincide with words):
    e----------------------------------------------------------------------
    B----------------------------------------------------------------------
    G--7--7--6---7---6-----7--6---7--7--6---7---6----7-6-------------------
    D----------------------------------------------------------------------
    A----------------------------------------------------------------------
    E----------------------------------------------------------------------…
  • Chords:
    A5:  577xxx or xx022x
    G5:  355xxx
    G#5: 466xxx
    D5:  x577xx
    C5:  x355xx
    E5:  x799xx
    F5:  133xxx
    
    
    Intro:
    
    E|------------------------------------------------------------------------|
    B|------------------------------------------------------------------------|
    G|-----------------7-7----------------------------------------------------|
    D|---7-7-7-7--5-5--7-7----------------------------------------------------|x2
    A|---7-7-7-7--5-5--5-5----------------------------------------------------|
    E|---5-5-5-5--3-3---------------------------------------------------------|
    
    E|------------------------------------------------------------------------|
    B|--------------------------8-8-8-8---------------------------------------|
    G|--9-9-9-9-9-9-9-9-5-5-5-5-----------------------------------------------|
    D|------------------------------------------------------------------------|
    A|------------------------------------------------------------------------|
    E|------------------------------------------------------------------------|
    
    
    Verse:
    (Bass…
  • e|-----------------------------------------------------------------------------| 
    b|-----------------------------------------------------------------------------|
    g|----12-12-12-12-12-12-12-12-12---11-11-11-11-11-11-11----12-12-12-12-12-12-12|
    d|-----------------------------------------------------------------------------|
    a|-----------------------------------------------------------------------------|
    E|-----------------------------------------------------------------------------|…
  • Tuning (D A D G B D)
    
    
    Intro:
    
    Guitar 1
    
    D[-----------5---------------------]
    B[---------------------------------]
    G[-----5-----------5-----5---4-----]
    D[-/-7-----7-----7-----7---------5-] x3
    A[---------------------------------]
    D[---------------------------------]
    
    D[-5b6---5----------------------------------------------------]
    B[------------------------------------------------------------]
    G[---------5---4-5-4---4-5---7b8---7------------------7b8-8r7-]
    D[-------------------7---------------7---7-9-9b10r9-7---------]
    A[------------------------------------------------------------]
    D[------------------------------------------------------------]
    
    Guitar…
  • Intro - Guitar 1:
    
      Bm                                     A
    E|------------------------------------------------------------
    B|------------------------------------------------------------
    G|-----11------11-----11-----11-----11------------------------
    D|--9------9-9----9-9----9-9----9-9----9-----11-----11-----11-
    A|---------------------------------------0------0-0----0-0----
    E|------------------------------------------------------------
    
    E|-------------------
    B|-------------------
    G|-------------------
    D|------11-----11----
    A|--0-0----0-0----0--
    E|-------------------…
  • Intro:
    
    e  -----------------------------------------------------------------------------------|
    B ------------------------------------------------------------------------------------|
    G ----------------9-9-7-7-7-7-7-7-----------------------------------------------------|
    D…
Наверх