Аккорды Kinoko Teikoku - Kasa

Добавлено: @romashka
Дата добавления: 16 Марта 2024г.
Рейтинг:
0.0
Просмотров: 43
Транспонировать - +
[Intro]
C#m G#m A E  x2

   C#m               G#m      A             E
e|---------------------------------------------------------------------------|
B|---------9-----------------------------------------------------------------|
G|--9--11-----8~--------------8-9--9/11-----13-13~---------------------------|
D|-------------------9--9/11-------------------------------------------------|
A|---------------------------------------------------------------------------|
E|---------------------------------------------------------------------------|
                                                                                     x 2
e|---------------------------------------------------------------------------|
B|---------9-----------------------------------------------------------------|
G|--9--11-----8~-----8-9-8-9--9/11---9-9~------------------------------------|
D|---------------------------------------------------------------------------|
A|---------------------------------------------------------------------------|
E|---------------------------------------------------------------------------|

[Verse 1]
C#m   G#m     A             E
Nurui ame ga karada wo arau
C#m       G#m     A            E
Yabuketa kutsu wa kuroku nijinda
C#m   G#m     A           E
Hibiwareta asufaruto kara
C#m   G#m     A         E
Kakushiteita honen ga sora wo miteru

[Pre-Chorus]
F#m        E
 Hitori de ii kara to
    D#dim    G#dim   C#m
Uso wo kasaneru goto ni
F#m     E
 Hito wa kodoku ni no
 B             G#
 Narete shimau no wa
 N.C.
 Naze

[Chorus]
C#m   G#m   A       E
"Kasa wo sashite kudasai"
C#m    G#m  A    E
Sou ittara anata wa
C#m   G#m   A       E
Kasa wo sashite kuremasu ka
C#m      G#m     B      C#m
Tatoe sono mi ga nurete mo

C#m G#m A E  x2

[Verse 2]
C#m        G#m       A            E
Kaze no naka de ashi wa shibirete
C#m       G#m        A           E
Yane no nai basho de tachitsukusu
C#m      G#m    A           E
Kinou nante doudatte ii kara
 C#m     G#m       A          E
Arukidasu yuuki ga ima hoshii

[Pre-Chorus]
F#m        E
 Dare demo ii kara to
    D#dim    G#dim   C#m
 Dasei wo kasaneru goto ni
F#m     E
 Hito wa tsuyosa na no
    B            G#
 Wasureteshimau no wa
 N.C.
 Naze

[Chorus]
C#m   G#m   A       E
"Kasa wo sashite kudasai"
C#m    G#m  A    E
Sou iwareta anata wa
C#m   G#m   A       E
Kasa wo sashite agemasu ka
C#m      G#m     B      C#m
Tatoe sono te ga yogorete mo

[Bridge]
F#m           E    B         C#m
   Tsumi wo seoi taiyou wo uragaeshita
F#m          E      B         G#          C#m     G#m     A       E
   Basei no naka mimi wo fusaide hashiridasu

[Solo]
C#m G#m A E   x3

[Chorus]
C#m   G#m   A       E
"Kasa wo sashite kudasai"
C#m    G#m  A    E
Sou ittara anata wa
C#m   G#m   A       E
Kasa wo sashite kuremasu ka
C#m      G#m     B      C#m
Tatoe sono mi ga nurete mo

[Outro]
N.C.
Kasa wo sashite kudasai
N.C.
Kasa wo sashite kudasai

C#m G#m A E   x4

************************************

| /  Slide up
| ~  Vibrato

************************************
Наверх