Аккорды Kitty Wells - Blue Snowflakes

Добавлено: @romashka
Дата добавления: 03 Марта 2024г.
Рейтинг:
0.0
Просмотров: 58
Транспонировать - +
[Intro]
          C       G     C
e|------------3------------------8---------------|
B|-11-3-4-5-5---5---0-3-1--3-4-5---5-6-5---------|
G|----------------0----------------------5-7-5---|
D|-----------------------------------------------|
A|-----------------------------------------------|
E|-----------------------------------------------|

[Chorus]
C               F         C
Blue snowflakes cover the ground
                         G7
When a blue lover has no sweetheart around
C7        F               C
And those blue snowflakes fall from the skies
                             G       C
Like the blue blue teardrops from my eyes

[Verse 1]
 C
(Sweethearts shopping everywhere dashing through the snow)
    G7                                                   C
The gifts all wrapped in bright red ribbons everywhere I go
 C
(Decorating trees of green for the ones they love)
G7                                          C
But for me I only see blue snowflakes from above

[Chorus]
                 F         C
(Blue snowflakes cover the ground)
                              G7
When a blue lover has no sweetheart around
 C7        F               C
(And those blue snowflakes fall from the skies
                             G        C
Like the blue blue teardrops from his eyes)

[Solo]
   C      F       C                         G7
e|------0-1-1-1\5-5-3----3------------3-----------------|
B|-11-3---------------55------3-4-5-5---5---0-3---------|
G|-------------------------55-------------0-------------|
D|------------------------------------------------------|
A|------------------------------------------------------|
E|------------------------------------------------------|
   C
e|----------8--------------|
B|-1--3-4-5---5-6-5--------|
G|------------------5-7-5--|
D|-------------------------|
A|-------------------------|
E|-------------------------|
| \ Slide down

[Verse 2]
C
I remember her first kiss on an old sleigh ride
    G                                                         C
The white snowflakes looked just like stardust with her by my side
C
It was then she promised me someday we would wed
 G7                                                   C
(Now those wedding bells will ring for someone else instead)

[Chorus]
                F          C
Blue snowflakes follow me around
                         G7
Only blue memories in my heart can be found
 C7        F               C
(And those blue snowflakes fall from the skies)
                             G       C
Like the blue blue teardrops from my eyes
                             G       C
Like the blue blue teardrops from my eyes  
Наверх