Аккорды Klaus Badelt - He's a pirat (OST "Pirates of Caribian)

Добавлено: @romashka
Дата добавления: 29 Мая 2022г.
Рейтинг:
0.0
Просмотров: 47
Транспонировать - +
e|---------------------|--0--1--1--|--1---3---0--0----|--------------|
B|-------1-----3---3---|-3---------|------------------|-3---1---3----|
G|---2-----------------|-----------|------------------|--------------|

e|---------------------|--1--3--3--|--3---5---6--6----|--5--3--5-----|
B|-------1-----3---3---|-3---------|------------------|-----------3--|
G|---2-----------------|-----------|------------------|--------------|

e|------0-----1----1---|-3---5-----|------1---0--0----|--1-----0---||----------|
B|--3------------------|--------3--|--3---------------|-----3------||-3--1--3--|
G|---------------------|-----------|------------------|------------||----------| 
Наверх