Аккорды Король и Шут - Пьянка

Добавлено: @romashka
Дата добавления: 16 Марта 2013г.
Рейтинг:
0.0
Просмотров: 496
Транспонировать - +
Am         Dm
Деревья тихо шепчутся,
        G
Макушками качая
И совсем внимания
На нас не обращая.
Прохладный тёплый вечер
В молчании застыл
        F              Dm
Петух притих в сарае -
         F            G
Горланить прекратил.


Припев: - 2 раза
      F
     А в голове мутит,
      Em
     И ангелы летают,

   Am                         G                          Am
4|--------7------7------5------5------7------7------7------7--|
5|--------7------7------5------5------7------7------7------7--|
6|-----55-5---55-5---33-3---33-3---55-5---55-5---55-5---55-5--|
  p.m. --     --     --     --     --     --     --     --
        И все  проблемы  тают   исчезают.

3|------------------5-4------|
4|-------5--7-----------7-5--|
5|-5--7--------7-5-----------|
6|---------------------------|


И в поле на пшенице
Мы славно отдыхаем:
Бутылку за бутылкой
Мы лихо пропускаем.
А в животе бурлит
Родная водка русская
Она там разгулялась
Со свежею закускою.


Припев - 2 раза

3|------------------5-4------|
4|-------5--7-----------7-5--|
5|-5--7--------7-5-----------|
6|---------------------------|


Сегодня не пойдём,
Буянить по дороге,
Тем более, что нас
Не держат наши ноги.
И песню затянув,
Да голосами пьяными,
Здесь в поле мы останемся
Ждать восход румяный ...


Припев - 2 раза

3|------------------5-4------|
4|-------5--7-----------7-5--|
5|-5--7--------7-5-----------|
6|---------------------------|

      F
     А голова болит,
      Em
     И ангелов нема...
      Am  G  Am
     Хо-хо-хо-хо.
comments powered by Disqus
Наверх