Аккорды Коста Лакоста - Белая луна

Добавлено: @romashka
Дата добавления: 18 Июля 2021г.
Рейтинг:
0.0
Просмотров: 90
Транспонировать - +
Вступление 
Fm Db G# Cm

e|-8-----|-----|-8-----|-----|-8-----|-----|-8-----|-----|
B|---9-8-|-9-8-|---9-8-|-8---|---9-8-|-9-8-|---9-8-|-8---|
G|-------|-----|-------|---8-|-------|-----|-------|---8-|
D|-------|-----|-------|-----|-------|-----|-------|-----|
A|-------|-----|-------|-----|-------|-----|-------|-----|
E|-------|-----|-------|-----|-------|-----|-------|-----|

      Fm
Перебивай меня лишь молчанием
   Db
И снова плывём отчаянно,
          G#
Просто молчать я буду не рад,
         Cm
Нужно кричать от глубоких ран.
        Fm
Чтобы начать разговоры заново,
        Db
Нас освещают чужими фарами
        G#
Мы не похожи с тобой на пару,
         Cm
Значит останемся просто в памяти.
Fm
Ретро-ретро волнами
 Db
Слёзы глаз наполнили,
G#
Помню, как однажды,
     Cm
Я сказал тебе: "Постой!"
Fm
Ретро-ретро волнами
 Db
Снова нам напомнили,
G#                     Cm
Я сегодня полон лишь тобой.

Припев
          Fm             Db
  Белая луна, чёрная дорога
                G#                 Cm
  Ты теперь со мной, но мне так одиноко.
            Fm                  Db
  Тёмная суббота, ночь так холодна
            G#                  Cm
  Вспоминаю фото, но нет пути назад.
          Fm             Db
  Белая луна, чёрная дорога
                G#                 Cm
  Ты теперь со мной, но мне так одиноко.
            Fm                  Db
  Тёмная суббота, ночь так холодна
            G#                  Cm
  Вспоминаю фото, но нет пути назад.

         Fm
Нас не догонят, нас не догонят
         Db
Нас не догонят с тобой никогда,
        G#
Это всё ложь и это так больно,
       Cm
Я закрываю навеки глаза.
       Fm
Пусть вновь бьётся сердце,
       Db
Пусть ссоры льются стрессом
  G#
Закончим это сексом,
     Cm
И вернёмся в никогда.
C#
Белая, белая Луна,
A#m
Медленно, медленно моя,
 Fm                   G#
Кто тебя, кто тебя придумал?
 C#               A#m
Смело будь собой, не смотри назад,
Fm                     G#
Не отводи от дороги взгляд.

Припев
          C#           A#m
  Белая луна, чёрная дорога
                Fm                 G#
  Ты теперь со мной, но мне так одиноко.
            C#                  A#m
  Тёмная суббота, ночь так холодна
            Fm                  G#
  Вспоминаю фото, но нет пути назад.
          C#           A#m
  Белая луна, чёрная дорога
                Fm                 G#
  Ты теперь со мной, но мне так одиноко.
            C#                  A#m
  Тёмная суббота, ночь так холодна
            Fm                  G#
  Вспоминаю фото, но нет пути назад.
 
Проигрыш 
C# A#m Fm G# x3

e|-8-----|-----|-8-----|-----|-8-----|-----|-8-----|-----|-8-----|-----|-8-----|
B|---9-8-|-9-8-|---9-8-|-8---|---9-8-|-9-8-|---9-8-|-8---|---9-8-|-9-8-|---9-8-|
G|-------|-----|-------|---8-|-------|-----|-------|---8-|-------|-----|-------|
D|-------|-----|-------|-----|-------|-----|-------|-----|-------|-----|-------|
A|-------|-----|-------|-----|-------|-----|-------|-----|-------|-----|-------|
E|-------|-----|-------|-----|-------|-----|-------|-----|-------|-----|-------|
Наверх