Аккорды Kurt Cobain - And I Love Her

Добавлено: @romashka
Дата добавления: 30 Апреля 2021г.
Рейтинг:
0.0
Просмотров: 119
Транспонировать - +
Riff 1

E|-----------------------------------------|
B|-----------------------------------------|
G|-----------------------------------------|
D|-----------------------------------------|
A|----3--2--0------------------------------|
E|-3---------------------------------------|

A5 

Riff 2

E|-----------------------------------------|
B|-----------------------------------------|
G|-----------------------------------------|
D|-----------------------------------------|
A|----3--2---------------------------------|
E|-3--------0------------------------------|

E5

A5           E5
She gives me everything
A5        E5
And tenderly

E|-----------------------------------------|
B|-----------------------------------------|
G|-----------------------------------------|
D|-----------------------------------------|
A|----3--2--0------------------------------|
E|-3---------------------------------------|

A5          E5
The kiss my lover brings
C5             D5
She brings to me
      G5
And I love her

A5             E5
Bright are the stars that shine
A5          E5      
Dark is the sKY            

E|-----------------------------------------|
B|-----------------------------------------|
G|-----------------------------------------|
D|-----------------------------------------|
A|----3--2--0------------------------------|
E|-3---------------------------------------|

A5           E5
I know this love of mine
C5          D5
Will never die
      G5
And I love her

B5          G5     B5          G5
A love like ours, could never die
B5         G5                 A4
As long as I have you near me

A5             E5
Bright are the stars that shine
A5          E5
Dark is the sky     
E|-----------------------------------------|
B|-----------------------------------------|
G|-----------------------------------------|
D|-----------------------------------------|
A|----3--2--0------------------------------|
E|-3---------------------------------------|

A5           E5
I know this love of mine
C5          D5
Will never die
      G5
And I love her            

Final 
A5  

E|-----------------------------------------|
B|-----------------------------------------|
G|-----------------------------------------|
D|-----------------------------------------|
A|----3--2--0------------------------------|
E|-3---------------------------------------|
Наверх