Аккорды Квартет имени Достоевского - Мотыльки

Добавлено: @romashka
Дата добавления: 02 Февраля 2022г.
Рейтинг:
0.0
Просмотров: 53
Транспонировать - +
Em     B  Em        Em G Bm Em
Депрессивный аккорд
Em       B   Em     Em G Bm Em
Как сверло в голове,
Em      B Em       Em G B Em
Как граната во рту
Em   B  Em  Em G Bm Em
Мои мысли.
 Em     Em4 B     Em
Затхлый тамбур души,
  B     Em     C   Em
Старых чувств леденец,
     C         Em
Неисполненных мечт
Em    B  Em 
Электричка.

G     Am(V) Cm B  Em C Bm Em
Мы умрём  просто так,
G     Am(V) Cm B Em C Bm Em
Нас убьют   дураки.
G     Am(V) Cm   B   C Bm Em
Через ночь на сквозняк–
G      B   Am(V) Em
Мотыльки, мотыльки.

Em C Bm Em }x4

Em   B      Em   Em C Bm Em
Человек-мотылёк,
Em      B  Em     Em C Bm Em
Ясных глаз уголёк,
Em   B Em       Em C Bm Em
Недоказанный бог
Em  B Em
Гаутама.
Em    Em4 B       Em
Через темень в зарю,
B     Em C     Em
И в заре я сгорю.
       C        Em
Депрессивный аккорд,
 Em      B Em
Похуй, пляшем.

G     Am(V) Cm B  Em C Bm Em
Мы умрём  просто так,
G     Am(V) Cm B Em C Bm Em
Нас убьют   дураки.
G     Am(V) Cm   B   C Bm Em
Через ночь на сквозняк–
G      B   Am(V) Em
Мотыльки, мотыльки.

Em 
Наша жизнь – полстроки,
        Em4 C     Em
Мы с тобой мотыльки,
        C       Em
Ходим света куски
 Em  B Em
Собираем.
 Em   Em4 B   Em
Почернел горизонт–
Em  Em4 C  Em
Это наша идёт
     C         Em
Неисполненных мечт
Em    B  Em
Электричка.

G     Am(V) Cm B  Em C Bm Em
Мы умрём  просто так,
G     Am(V) Cm B Em C Bm Em
Нас убьют   дураки.
G     Am(V) Cm   B   C Bm Em
Через ночь на сквозняк–
G      B   Am(V) Em
Мотыльки, мотыльки.

C D#m Em Em }x4

C         D#     B    Em
В чёрный день октября
C       B        Em
Выпал свет фонаря,
C       D#m    B Em 
Злой зимы поцелуй,
C   D#        Em
Улыбайся, танцуй.
C         D#        Em
В чёрный день октября
C       D#m     Em
Выпал свет фонаря,
C       D#m B  Em 
Злой зимы поцелуй,
C   D#    B   Em
Улыбайся, танцуй.
C          Cm    Bm Em
В чёрный день октября
C       Cm    Bm Em
Выпал свет фонаря,
Cm      Cm   Bm Em
Злой зимы поцелуй,
C   B         Em
Улыбайся, танцуй.
C          Cm    Bm Em
В чёрный день октября
C       Cm    Bm Em
Выпал свет фонаря,
Cm      Cm   Bm Em
Злой зимы поцелуй,
C   B         Em
Улыбайся, танцуй.

C Cm Bm Em }X4 

Первые части первых двух куплетов рекомендую играть ударами вниз, повторяя мелодию вокала:
E---------------------------
B---------------------------
G--0----------}х3-----------
D-2--4---2-1-2}х3--2-2--4-2-
Вторые части этих куплетов просто шестеркой, но на всякий случай приведу мелодию, чтобы знать, на какие струны делать акценты:
E--------------------------------------------0-0-2-0-
B-0-0-----------------1-0-0---0-0-1--1-1-0-----------
G----2------0------2---------------------------------
D--------2-2----2-2----------------------------------
Припев и четвёртый куплет восьмёркой.
Третий каким-нибудь импровизированныи перебором по нижним струнам, опять же попадая в мелодию:
E-----------------------------------------------------
B-----------------------1-0-0---0-0-1--1-1-0----------
G--0-----------------2--------------------------------
D-2--4---2-1-2---2-2--------------------------2-2--4-2

E---------------------------------------------0-0-2-0-
B-0-0-------------------1-0-0---0-0-1--1-1-0----------
G-----2--------------2--------------------------------
D--------4-4-2---2-2----------------------------------
Наверх