Аккорды La 25 - Dando Vueltas

Добавлено: @romashka
Дата добавления: 05 Июня 2024г.
Рейтинг:
0.0
Просмотров: 13
Intro:

E/---------------------/----/----------------------/--------------------/
B/---------------------/----/----------------------/--------------------/
G/--------------------/----/----------------------/--------------------/
Re/-------5-5--5---7p5--/-x2-/--------5-5--5--8p7p5-/-------5-5--5---7p5-/
A/-5h7p5---------------/----/--5h7p5---------------/-5h7p5--------------/
E/---------------------/----/----------------------/--------------------/

E/--------------------------------------------------/----/
B/--------------------------------------------------/----/
G/-------------------------------------------------/----/
Re/-------5-----5-----5---5--------5-----5-----5-7p5-/-x2-/
A/-5h7p5---7p5---7p5---7----5h7p5---7p5---7p5-------/----/
E/--------------------------------------------------/----/

E/------------/-------------//--------------/---//--------------/--/
B/------------/-------------//--------------/---//--------------/--/
Sol/-----------/-------------//--------------/---//-7-6-5-3------/--/
D/-7b-7b-5----/----------5~-//-1/3----------/-x4//-7-6-5-3--3/5-/x4/
La/---------7--/-----5h7-----//-3/5--3-3-3-3-/---//----------3/5-/--/
E/------------/-5h7---------//------5-5-5-5-/---//--------------/--/

Entra el bajo y despues empieza a cantar

     G
Es la ruta del oeste
va acercandome al lugar
me parece haber estado lejos
de aquel negro festival.
Mis entradas estan sin nombre,
vale por estar aca,
esta sonando un blues muy negro
me recuerdas mas y mas.

 C
Nena no me digas
que todo ya acabo.

G
Me dejaste ya sin chances,
y lo mejor no paso,
y sigo

D                                         C
dando vueltas, dando vueltas, dando vueltas hoy
  G
maldito blues.
Y sigo
D                                         C
dando vueltas, dando vueltas, dando vueltas hoy
  G
maldito blues.

  G
Húmedas paredes
Conservando los escraches de color
Las benditas escaleras van subiendo mi dolor
Es un sueño de vasallos
Me parece haber estado aquí
Esta soplando un viento carrilero
Que viene por mi

   C
Nena no me digas
Si estuvimos alguna vez asi

   G
Abrazándome de espalda
Con tus tetas sobre mi.

D                                         C
dando vueltas, dando vueltas, dando vueltas hoy
  G
maldito blues.
Y sigo
D                                         C
dando vueltas, dando vueltas, dando vueltas hoy
  G
maldito blues.

Solo: G x4   /
      D - G /x2

  G
Húmedas paredes
Conservando los escraches de color
Las benditas escaleras van subiendo mi dolor
Es un sueño de vasallos
Me parece haber estado aquí
Esta soplando un viento carrilero
Que viene por mi

   C
Nena no me digas
Si estuvimos alguna vez asi

   G
Abrazándome de espalda
Con tus tetas sobre mi.

D                                         C
dando vueltas, dando vueltas, dando vueltas hoy
  G
maldito blues.
Y sigo
D                                         C
dando vueltas, dando vueltas, dando vueltas hoy
  G
maldito blues.
Maldito Blues
Maldito Blues
Maldito Blues
Maldito Blues
Maldito Blues
Maldito Blues
Maldito Blues
Maldito Blues

Fin
Музыка - это язык духа. Он открывает тайну жизни, приносящую мир и устраняющую раздоры (Халил Джебран)
Мы стремимся к созданию контента, соответствующего всем нормам законодательства и уважающего интеллектуальную собственность. Мы также придаем большое значение тому, чтобы не задеть никого и не оскорбить чьи-либо чувства. Если у вас есть вопросы или претензии по размещенному материалу, пожалуйста, сообщите нам об этом на указанный адрес электронной почты: [email protected].
Шрифт
-
0
+
Прокрутка
-
0
+
Стоп
Наверх