Аккорды Lake of Tears - Raistlin And The Rose

Добавлено: @romashka
Дата добавления: 21 Января 2018г.
Рейтинг:
0.0
Просмотров: 195
Транспонировать - +
Gm        Fm
Shadows, shadows and fever
Gm        Fm
No one hears him cry so he turns to evil
D#5       D5
Only now, only now does he know

Gm        Fm
Pains, always those pains
Gm        Fm
Once he turns that way he will do it again
D#5       D5
Only now, only now does he know
D#5       D5
Silver doom, unseen moon will show

Riff 1:
g-------3-2---3-2------
D-----0-----1-----1-1-0
A----------------------
E-1-3------------------

Riff 2:
D------------------1---1-1-0-
A-----0-1-3--3-3-3---3-------
E-0-0------------------------

Riff 1                     Riff 1 
As they dance under the moon, they bring doom
Riff 2
He calls her friend and says he'll change
Riff 2
She calls him friend and he deceives again

Gm        Fm
Flowers, A scent of flowers
Gm        Fm
Always on his mind so he deceives her
D#5       D5
Only now, only now does she know

Gm        Fm
Love, love makes her blind
Gm        Fm
Soon she follows him through the doors of time
D#5       D5
Only now, only now does she know
D#5       D5
Silver doom, unseen moon will show

Riff 1:
g-------3-2---3-2------
D-----0-----1-----1-1-0
A----------------------
E-1-3------------------

Riff 2:
D------------------1---1-1-0-
A-----0-1-3--3-3-3---3-------
E-0-0------------------------

Riff 1                     Riff 1 
As they dance under the moon, they bring doom
Riff 2
He calls her friend and says he'll change
Riff 2
She calls him friend and he deceives again
Riff 2
He calls her friend and says he'll change
Riff 2
She calls him friend and he deceives again
Наверх