Аккорды Lana Del Rey - Cherry

Добавлено: @romashka
Дата добавления: 23 Апреля 2021г.
Рейтинг:
0.0
Просмотров: 20
Транспонировать - +
Verse 1
 
    Em                      G/D#                    G/D                     G/D#
e|--------3-----------3-----------3-----------3-----------3-----------3-----------3-----------3------|
B|------0---0-------0---0-------0---0-------0---0-------0---0-------0---0-------0---0-------0---0----|
G|----0-------0---0-------0---0-------0---0-------0---0-------0---0-------0---0-------0---0-------0--|
D|--2-----------2-----------1-----------1-----------0-----------0-----------1-----------1------------|
A|---------------------------------------------------------------------------------------------------|
E|---------------------------------------------------------------------------------------------------|
 
    Em                      G/D#                    G/D                       D5
e|--------3-----------3-----------3-----------3-----------3-----------3------------------------------|
B|------0---0-------0---0-------0---0-------0---0-------0---0-------0---0---------3-----------3------|
G|----0-------0---0-------0---0-------0---0-------0---0-------0---0-------0-----2---2-------2---2----|
D|--2-----------2-----------1-----------1-----------0-----------0-----------0-4-------4-0-4-------4--|
A|---------------------------------------------------------------------------------------------------|
E|---------------------------------------------------------------------------------------------------|
 
Em
Darlin'
  G/D#
I said real love
          G/D
It's like feeling no fear when you're standing in the face of danger
G/D#
     'Cause you just want it so much
 
  Em
A touch
         G/D#
From your real love
          G/D
It's like heaven taking the place of something evil
               D5
And lettin' it burn off from the rush, yeah, yeah
 
Chorus 1
    C
And darlin', darlin', darlin'
          Em                   D5
I fall to pieces when I'm with you
          C
I fall to pieces
                Em                 D5
My cherries and wine, rosemary and thyme
 
Verse 2
              Em
And all of my beaches are ruined
           G/D#
Love I said I need your love
          G/D
It's like smiling when the firing squad's against you
             D5
But you just stay lined up, yeah, yeah
 
Chorus 2
       C
'Cause darlin', darlin', darlin'
          Em                   D5
I fall to pieces when I'm with you
          C
I fall to pieces
                Em                 D5
My cherries and wine, rosemary and thyme
 
              C
And all of my beaches are ruined
               Em
My rose garden dreams
               D5
Set on fire by fiends
 
                 C
And all my black beaches are ruined
             Em
My celluloid scenes
                D5
Are torn at the seams
          C
And I fall to pieces

I fall to pieces

When I'm with you
 
Chorus 3
Em                      D5
   'Cause I love you so much
          C
I fall to pieces
                Em                 D5
My cherries and wine, rosemary and thyme
              C
And all of my beaches are ruined, are ruined
Em                       D5
   Mmm mm-mm, are ruined
              Em
And I fall to pieces

Capo 4th fret
Наверх