Аккорды Ландыши - За ум и красоту

Добавлено: @romashka
Дата добавления: 18 Февраля 2022г.
Рейтинг:
0.0
Просмотров: 27
Транспонировать - +
[Проигрыш] x2

E|----------------------------------------------------------------------0---0--|
B|----------------------------------------------------------------------0---2--|
G|----------------------------------------------------------------------0---0--|
D|----------------------------------------------------------------------2---2--|
A|----------------------------------------------------------------------3---3--|
E|--5-5-5-5-7-7-7-7-8-8-8-8-10-10-10-10-8-8-8-8-7-7-7-7-5-5-5-5-3-3-3-3--------|


E|---------------------------------------------------------------------------------------|
B|---------------------------------------------------------------------------------------|
G|---------------------------------------------------------------------------------------|
D|---------------------------------------------------------------------------------------|
A|---------------------------------------------------------------------------------------|
E|--5-5-5-5-7-7-7-7-8-8-8-8-10-10-10-10-12-12-12-12-13-13-13-13-12-12-12-12-10-10-10-10--|


E|---------------------------------------|
B|---------------------------------------|
G|---------------------------------------|
D|---------------------------------------|
A|---------------------------------------|
E|--5--5--5-5-5--3--0--3--5--7--5--3--5--|


[Куплет 1]:
  Am                   C
Я пешку королевскую с е2 на е4
   G                   Am
Перемещу, соперника внезапностью сразив.
  Am                          C
Соперник мой - сосед, ещё он чемпион по гирям,
  G                     Am
А я играю в шахматы, я молод и красив.


[Припев]:
   Am         G          Dm         Am
За ум и красоту мою со мной бывают ласковы
     Am         G         Dm        Am
Все женщины подъезда в пределах сорока.
  Am       G        Dm      Am
Я разыграю партию любимую испанскую,
   Am         G       Dm        Am
Сражённого за пивом пошлю гиревика.

--[Проигрыш]-- x2


[Куплет 2]:

Друзья, вообразите, как же сильно удивился я,
Нарвавшись на дремучую защиту Каро-Канн.
Ладью ему пожертвовал, но выиграл позицию,
А на шестнадцатом ходу мой ферзь попал в капкан.


[Припев]:

За ум и красоту мою со мной бывали ласковы
Все женщины подъезда в пределах сорока.
Не разыграл я партию любимую испанскую
Не для меня сады цветут, а для гиревика.

Am  G  Dm  Am  x4

--[Проигрыш]-- x2

   Am        G        Dm              Am
За ум и красоту мою меня частенько... 
Наверх