Аккорды Lauren Daigle - Rescata

Добавлено: @romashka
Дата добавления: 26 Февраля 2024г.
Рейтинг:
0.0
Просмотров: 66
Транспонировать - +
[Intro]

   G     D/F#  A     Bm
e|-x-----x-----x-----x--|
B|-0-----3-----2-----3--|
G|-0-----2-----2-----4--|
D|-0-----0-----2-----3--|
A|-x-----x-----0-----2--|
E|-3-----2-----x-----x--|

[Verse 1]
            G
En donde te encuentras
D/F#        A
 No me he olvidado
                Bm
De lo que estás pasando
      G
Tu inocencia
D/F#       A
 Ha sido robada
               Bm
y tu confianza quebrada

[Pre-Chorus]

   G           D/F#        A           Bm            G           D/F#        A           A
e|-------------------------------------------------|-------------------------------------5-----------|
B|-----3-----3-----3-----3-2-----2-----3-----3-----|-----3-----3-----3-----3-2-----2-----2-----------|
G|-----0-----0-----2-----2-2---2---2---4-4-----4---|-----0-----0-----2-----2-2---2---2---2-----------|
D|---0-----0-----0-----0---2-2-------2-4---4-----4-|---0-----0-----0-----0---2-2-------2-2-----------|
A|-------------------------0-----------2-----------|-------------------------0-----------0-----------|
E|-3-----3-----2-----2-----------------------------|-3-----3-----2-----2-----------------------------|

  G          D/F#   A   Bm
Escucho tu desesperación
  G          D/F#      A
Auxilio ayúdame, ayúdame

[Chorus]

D/F# Em
Te defenderé siempre
Bm    G
Nunca solo pelearás
Bm          G         D/F#
Créelo que, te rescataré

[Verse 2]
          G
No hay distancia
D/F#       A
 Que nos separe
              Bm
O te deje indefenso
          G
Seré tu escudo
D/F#        A
 Seré tu resguardo
          Bm
En todo momento

[Pre-Chorus]

    Gsus2       D  D5 D  Dsus2  A     Bm            Gsus2       D  D5 D  Dsus2  A         A/E
e|--2--5--2--5--2--5--2--0-----------------------|--2--5--2--5--2--5--2--0----------------0------|
B|--3--3--3--3--3--3--3--3--2----2----3-----3----|--3--3--3--3--3--3--3--3--2----2---2----2------|
G|--0--0--0--0--2--2--2--2--2-2---2---4-4-----4--|--0--0--0--0--2--2--2--2--2-2---2---2---2------|
D|--0--0--0--0--0--0--0--0--2--2---2--4---4-----4|--0--0--0--0--0--0--0--0--2--2---2---2--2------|
A|--------------------------0---------2----------|--------------------------0-------------0------|
E|--3-----3--------------------------------------|--3-----3-------------------------------0------|

  G          D/F#   A   Bm
Escucho tu desesperación
  G          D/F#      A   A/E
Auxilio ayúdame, ayúdame

[Chorus]

   D/F#     Em7      Bm7      G        Bm7        G         D/F#      Dsus2
e|-2--------3--------2--------3--------2-2-5-5-2--3---------2---------0---------|
B|-3--------0--------3--------0--------3-3-3-3-3--0---------3---------3----3----|
G|-2--------0--------2--------0--------2-2-2-2-2--0---------2---------2----2----|
D|-0--------2--------4--------0--------4---4---4--0---------0---------0----0----|
A|----------2--------2-----------------2---2---2--------------------------------|
E|-2--------0-----------------3-------------------3---------2---------2----2----|

D/F# Em7
Te defenderé siempre
Bm7   G
Nunca solo pelearás
Bm7         G         D/F#   Dsus2
Créelo que, te rescataré

D/F#  Em7
Marcharé siempre al frente
Bm7   G
Nunca solo pelearás
Bm7         G         D/F#   Dsus2
Créelo que, te rescataré

[Outro]
  Gmaj7         F#m7  A7    A7/E
Escucho tu desesperación
      Gmaj7
Tu aliento ya no
F#m7        A7    A7/E
puedes sostener

D/F# Em7
Te defenderé siempre
Bm7   G
Nunca solo pelearás
Bm7         G         D/F#   Dsus2
Créelo que, te rescataré
D/F#  Em7
Marcharé siempre al frente
Bm7   G
Nunca solo pelearás
Bm7         G         D/F#   Dsus2
Créelo que, te rescataré
Bm7         G         D/F#
            Te rescataré 
Наверх