Аккорды Легендарные Пластилиновые Ноги - Забывай меня

Добавлено: @romashka
Дата добавления: 07 Июня 2021г.
Рейтинг:
0.0
Просмотров: 166
Транспонировать - +
Dm5 Dmsus5 F F5 Am G 
 
Dm5 Dmsus5 F F5 
Я умру от сердечного 
Am 
приступа 
Am G 
В этом городе супер таинственном, 
Dm5 Dmsus5 F F5 
Оставляя с досадой краснеть 
Am 
облака. 
 
G 
 
Dm5 Dmsus5 F F5 Am 
И не то чтобы мы с ним были на "ты" 
Am G 
Его дворники смоют мои следы 
Dm5 Dmsus5 F F5 Am 
И в эфире не дрогнет моя струна 
 
G 
 
Dm5 Dmsus5 
Забывай меня 
F F5 
Забывай меня 
Am 
Забывай... 
G 
Меня родная 
 
Dm5 Dmsus5 F 
В этой книге для нас 
F5 
Не хватит 
Am 
страниц 
 
G 
 
Dm5 Dmsus5 
Отпусти меня 
F F5 
Отпусти меня 
Am 
Отпусти 
G 
И ты узнаешь 
Dm5 Dmsus5 F F5 Am 
мир не знает границ 
 
G 
 
Dm5 Dmsus5 F F5 
Я умру от сердечного 
Am 
приступа 
Am G 
Не успев добраться до истины 
Dm5 Dmsus5 F F5 
Заблудившись в твоих часовых 
Am 
поясах 
 
G 
 
Dm5 Dmsus5 F F5 
И не то чтобы мир был против 
Am 
меня 
Am G 
Просто так легко дотянуться до дна, 
Dm5 Dmsus5 F F5 
А на верх можно только поднять 
Am 
глаза 
 
Dm5 Dmsus5 
Забывай меня 
F F5 
Забывай меня 
Am 
Забывай... 
G 
Меня родная 
 
Dm5 Dmsus5 F 
В этой книге для нас 
F5 
Не хватит 
Am 
страниц 
 
Проигрыш 
 
E--------------------------------0-— 
B----0--1---3-0-1---0-1-3------3— 
G-2---------------------------------— 
 
E--------------------------------1-0— 
B----0--1---3-0-1---0-1-3------— 
G-2---------------------------------— 
 
E-1-1--0-0-------------3-3---1-1--0-0--------------------------------------8-7-----— 
B------------------0-0----------------------3-3--1-1--0-0---------------------------— 
G------------2-2---------------------------------------------2-2--0-0--2-0-— 
 
E-1-1--0-0-------------3-3---1-1--0-0-------------0-------0--3--5 
B------------------0-0----------------------3-3------1----— 
G------------2-2--------------------------------------2-----— 
D------------------------------------------------------2------— 
 
G 
 
Dm5 Dmsus5 F F5 
Я умру от сердечного 
Am 
приступа 
Am G 
В этом городе супер таинственном, 
Dm5 Dmsus5 F F5 
Оставляя с досадой краснеть 
Am 
облака. 
 
G 
 
Dm5 Dmsus5 F F5 Am 
И не то чтобы мы с ним были на "ты" 
Am G 
Его дворники смоют мои следы 
Dm5 Dmsus5 F F5 Am 
И в эфире не дрогнет моя струна 
 
G 
 
Dm5 Dmsus5 
Забывай меня 
F F5 
Забывай меня 
Am 
Забывай... 
G 
Меня родная 
 
Dm5 Dmsus5 F 
В этой книге для нас 
F5 
Не хватит 
Am 
страниц 
 
G 
 
Dm5 Dmsus5 
Отпусти меня 
F F5 
Отпусти меня 
Am 
Отпусти 
G 
И ты узнаешь 
Dm5 Dmsus5 F F5 Am 
мир не знает границ

F 033210 
F5 033200 
Dm5 00021x 
Dmsus5 00020x 
Наверх