Аккорды Ленинград - Без тебя

Добавлено: @romashka
Дата добавления: 16 Марта 2013г.
Рейтинг:
0.0
Просмотров: 891
Транспонировать - +
Вступление: (2 раза)
  Cm    B        G#      B         Cm     B       G#    B
E|-------------------------------|-----------------------------|
B|---------6-4-6-4---4--8-6-4-0--|---------6-4-6-8--8-11-9-8-6-|
G|-5--0--3-----------------------|-5--0--3---------------------|
D|-------------------------------|-----------------------------|
A|-------------------------------|-----------------------------|
E|-------------------------------|-----------------------------|
        Cm             Cm               Cm
E|---------------|---------------|----------------|
B|---------------|---------------|----------------|
G|---------------|---------------|----------------|
D|--5-5-5-5-5-5--|---------------|-5-5-5-5-5-5----|
A|-------------3-|-------------3-|-------------3--|
E|---------------|-3-3-3-3-3-3---|----------------|

Cm                   B
У меня, как обычно - все отлично.
G#            B
Мои корабли уходят в запой.
Cm                    B
У тебя, как обычно - все очень цинично:
 G#               B
"Мол, за собой посуду помой!"
Cm             B
Ну и, конечно, все эти бабы,
G#              B
Которые садятся мне на конец.
Cm            B
О, я ебусь с ними со всеми,
G#              B
Но без тебя пиздец!!!

Припев:
   Cm     B      G#        B
   Без тебя пиздец!!!
                     2|--4--8-6-4-0--|
   Cm     B      G#        B
   Без тебя пиздец!!!
                     2|--8--11-9-8-6-|
   Cm     B      G#        B
   Без тебя пиздец!!!
                     2|--4--8-6-4-0--|
   Cm     B      G#        B
   Без тебя пиздец!!!
                     2|--8--11-9-8-6-|

Проигрыш: (как вступление - 2 раза)

Знаю, знаю ты - одна такая.
Знаю, знаю ты - одна такая,
Знаю, знаю ты - одна такая есть, оу ес!!!
Знаю, знаю ты - одна такая.
Знаю, знаю ты - одна такая,
Знаю, знаю ты - одна такая
Знаю, знаю без тебя пиздец!!!

Припев.

Концовка:
  Cm   B       G#      B       Cm     B       G#      B
E|----------------------------|--------------------------------|
B|-------6-4-6-4---4--8-6-4-0-|---------6-4-6-8---8--11-9-8-6--|
G|-5-0-3----------------------|-5--0--3------------------------|
D|----------------------------|--------------------------------|
A|----------------------------|--------------------------------|
E|----------------------------|--------------------------------|

E|------------|----------------|
B|--11-9-8-6--|--11-9-8-6--13--|
G|------------|----------------|
D|------------|----------------|
A|------------|----------------|
E|------------|----------------|
comments powered by Disqus
Наверх