Аккорды Lenny Kravitz - Freedom Train

Добавлено: @romashka
Дата добавления: 26 Мая 2024г.
Рейтинг:
0.0
Просмотров: 14
Gtr I (E A D G) - 'Lenny Kravitz - Bass'

    [Intro]
    Q=82
    4/4
     Gtr I
     e e q  e e e e   e E Q  H     4x     S S S S E. S S S S S E. S
G||-----------------|--------------||-||----------------------------|
D||o--------------5-|-------------o||-||o---------------------------|
A||o-7--------5-7---|-------------o||-||o-5-5-4-5------5-5-4-5------|
E||-----------------|-0------------||-||-------------0------------0-|

   S S S S S S E E E E. S  3x S S S S E. S S S S S E. S   S S S S S S E E E Q
G|-------------------------||---------------------------|----------------------||
D|------------------------o||---------------------------|----------------------||
A|-5-5-4-5-----5-5-7------o||-5-5-4-5------5-5-4-5------|-5-5-4-5-----5-5-7----||
E|-----------0----------0--||------------0------------0-|-----------0----------||

  [Chorus]
                     1.,2.,3.
     e e q  e e e e   e E e E E e e E  4x
G||-----------------|------------------||
D||o--------------5-|-----------------o||
A||o-7--------5-7---|-----7-------5---o||
E||-----------------|-0---------7------||

                     [Interlude]
  4.
   e E e E E e e E    S S S S E. S S S S S E. S
G|-----------------||----------------------------|
D|-----------------||----------------------------|
A|-----7-----5-7---||-5-5-4-5------5-5-4-5-------|
E|-0---------------||------------0------------0--|

   S S S S S S E E E E. S   S S S S E. S S S S S E. S   S S S S S S E E E E. S
G|------------------------|---------------------------|------------------------|
D|------------------------|---------------------------|------------------------|
A|-5-5-4-5-----5-5-7------|-5-5-4-5------5-5-4-5------|-5-5-4-5-----5-5-7------|
E|-----------0----------0-|------------0------------0-|-----------0----------0-|

                |-3-|
   S S S S E. S E E E E S S   S S S S S S E E E E. S
G|--------------------------|------------------------|
D|--------------------------|------------------------|
A|-5-5-4-5------5-5-4-5-----|-5-5-4-5-----5-5-7------|
E|------------0-----------0-|-----------0----------0-|

   S S S S E. S S S S S E. S
G|-----------------------------|
D|-----------------------------|
A|-5-5-4-5------5-5-4-5--------|
E|------------0------------0---|

                          [Chorus]
   S S S S S S E E E Q      e e E e e e e E   S E S E e e e e E  4x
G|----------------------||------------------|--------------------||
D|----------------------||o-----------------|-------------------o||
A|-5-5-4-5-----5-5-7----||o-7-----7---5-7---|-7---5---7-----5---o||
E|-----------0----------||------------------|-------------7------||

     S E S Q  E e e E   S E S Q  e e Q   6x
G||-------------------|------------------||
D||o------------------|-----------------o||
A||o-5---7------5-7---|-5---7-----------o||
E||-------------------|----------4-5-----||

   S S S S E. S S S S S E. S   S S S S S S E E E E. S
G|---------------------------|--------------------------*|
D|---------------------------|--------------------------*|
A|-5-5-4-5------5-5-4-5------|-5-5-4-5-----5-5-7--------*|
E|------------0------------0-|-----------0----------0---*|

[Lyrics]
It’s on the freedom train
Come on dance on the freedom train

************************************
Duration Legend

W - whole; H - half; Q - quarter; E - 8th; S - 16th; a - acciaccatura; 
+ - note tied to previous; . - note dotted;
Duration letters will always appear directly above the note/fret number it represents the
duration for.  Duration letters with no fret number below them represent rests.
Uncapitalized letters represent notes that are staccato (1/2 duration). 

| |-3-| -  triplet  
************************************
Музыка - лучшее утешение для опечаленного человека (Лютер)
Мы стремимся к созданию контента, соответствующего всем нормам законодательства и уважающего интеллектуальную собственность. Мы также придаем большое значение тому, чтобы не задеть никого и не оскорбить чьи-либо чувства. Если у вас есть вопросы или претензии по размещенному материалу, пожалуйста, сообщите нам об этом.
Шрифт
-
0
+
Прокрутка
-
0
+
Стоп
Наверх