Аккорды Lenny Kravitz - Is There Any Love in Your Heart

Добавлено: @romashka
Дата добавления: 26 Мая 2024г.
Рейтинг:
0.0
Просмотров: 15
Standard tuning (EADG)

INTRO:

G |---------------------------------|---------------------------------|
D |---------------------------------|---------------------------------|
A |-0-------------------------------|(0)--------------------------r---|
E |---------------------------------|---------------------------------|
    1   &   2   &   3   &   4   &     1   &   2   &   3   &   4   &

                                                              s
G |---------------------------------|---------------------------------|
D |-7-------------------------------|(7)------------------r---7-r-7---|
A |---------------------------------|---------------------------------|
E |---------------------------------|---------------------------------|
    1   &   2   &   3   &   4   &     1   &   2   &   3   &   4   &

PRE-VERSE:
                                s s   s                     s s
G |---------------------------------|---------------------------------|
D |---------7-------------------5h7-|---------7---------------7-r-7---|
A |-0---0---------------------------|-0-r-0-----------------0---------|
E |---------------------------------|---------------------------------|
    1   &   2   &   3   &   4   &     1   &   2   &   3   &   4   &

    s                     s s s       s
G |---------------------------------|---------------------------------|
D |---------7---------------5h7-7---|---------7-----------------------|
A |-0-r-0-----------------0---------|-0-r-0---------------0---2---3---|
E |---------------------------------|---------------------------------|
    1   &   2   &   3   &   4   &     1   &   2   &   3   &   4   &

VERSE 1:
                                                    s s             s
G |---------------------------------|---------------------------------|
D |-0-------0-------0---2---3-------|-----------------0-2---3---4---5-|
A |-----------------------------3---|(3)------------3-----------------|
E |---------------------------------|---------------------------------|
    1   &   2   &   3   &   4   &     1   &   2   &   3   &   4   &

    s                     s s s s s   s                     s
G |---------------------------------|---------------------------------|
D |---------7-------------------5h7-|---------7---------------7-\-----|
A |-0-r-0-----------------0-5h7-----|-0-r-0-------------0---0-----3---|
E |---------------------------------|---------------------------------|
    1   &   2   &   3   &   4   &     1   &   2   &   3   &   4   &

G |---------------------------------|---------------------------------|
D |-0-------0---2--/4---3---2-------|----2------3----/4---0-----------|
A |-----------------------------3---|(3)----------------------3---5---|
E |---------------------------------|---------------------------------|
    1   &   2   &   3   &   4   &     1   &   2   &   3   &   4   &

    s                     s s s s s   s                     s
G |---------------------------------|---------------------------------|
D |---------7---------------5p0-5h7-|---------7---------7-----7-------|
A |-0-r-0-----------------0---------|-0-r-0---------0-------0-----0---|
E |---------------------------------|---------------------------------|
    1   &   2   &   3   &   4   &     1   &   2   &   3   &   4   &

                    s       s s s s
G |---------------------------------|---------------------------------|
D |---------2-------3-r-4---3p0-----|---------------------------------|
A |-3---3-------3---------------4-3-|---------4---5---7---r-----------|
E |---------------------------------|-0---4-/-------------------------|
    1   &   2   &   3   &   4   &     1   &   2   &   3   &   4   &

PRE—VERSE:
                                s s   s                     s s
G |---------------------------------|---------------------------------|
D |---------7-------------------5h7-|---------7--------------/7-r-7---|
A |-0-------------------------------|-0-r-0-----------------0---------|
E |---------------------------------|---------------------------------|
    1   &   2   &   3   &   4   &     1   &   2   &   3   &   4   &

    s                       s s s     s
G |---------------------------------|---------------------------------|
D |---------7---------------5h7-7---|---------7-----------------------|
A |-0-r-0---------------------------|-0-r-0-----------0---2---3---4---|
E |---------------------------------|---------------------------------|
    1   &   2   &   3   &   4   &     1   &   2   &   3   &   4   &

VERSE 2:
                  s
G |----------------ls---------------|---------------------------------|
D |-0-------0-----2/4---2---0-------|-----5---4---3---5---4---5---6-/-|
A |-----------------------------3---|(3)------------------------------|
E |---------------------------------|---------------------------------|
    1   &   2   &   3   &   4   &     1   &   2   &   3   &   4   &

                          s s s       s                 s   s
G |---------------------------------|---------------------------------|
D |---------7---------------5h7-7---|---------7---------------7-------|
A |-0---0-----------------0---------|-0-r-0-------------0-r-0-----0---|
E |---------------------------------|---------------------------------|
    1   &   2   &   3   &   4   &     1   &   2   &   3   &   4   &

                                                              s
G |---------------------------------|--------/5---3-------------------|
D |---------------------------------|-----5-----------5---4---0-6-----|
A |-5-------5-------------------3---|(3)/-----------------------------|
E |-------------0---2---3---5-------|---------------------------------|
    1   &   2   &   3   &   4   &     1   &   2   &   3   &   4   &

                          s s s       s
G |---------------------------------|---------------------------------|
D |-7-------7---------------5h7-7---|---------7-----------------------|
A |-----0-------------0---0---------|-0-r-0-------------0-----2---3---|
E |---------------------------------|---------------------------------|
    1   &   2   &   3   &   4   &     1   &   2   &   3   &   4   &

                  s     s
G |---------------------------------|---------------------------------|
D |---------2-------3---4-5---6-----|---------------------------------|
A |-3---3---------3-----------------|-7-------5---6---7-------r-------|
E |---------------------------------|-----0---------------------------|
    1   &   2   &   3   &   4   &     1   &   2   &   3   &   4   &

CHORUS 1:

G |---------------------------------|---------------------------------|
D |---------7-------7-\-------------|---------------------------------|
A |-0-------------------------------|---------------------------------|
E |---------------------0---4---3---|(3)------------------------------|
    1   &   2   &   3   &   4   &     1   &   2   &   3   &   4   &

G |---------------------------------|---------------------------------|
D |---------------------------------|---------------------2---3-/-5---|
A |-5-------------------------------|-----0---1---2---3---------------|
E |-----------------5---4---3-\--1--|(1)/-----------------------------|
    1   &   2   &   3   &   4   &     1   &   2   &   3   &   4   &

                            s s
G |---------------------------------|---------------------------------|
D |---------------------------------|---------------------------------|
A |-0---------------0---0-----------|---------------------------------|
E |-------------------------0-2-3---|(3)------------------------------|
    1   &   2   &   3   &   4   &     1   &   2   &   3   &   4   &

                                                      s       s
G |---------------------------------|---------------------------------|
D |---------------------------------|---------------------------------|
A |-5-------------------------------|-----------------3-------3-------|
E |-----------------5---4---3-\-1---|(1)----------------3-------3-----|
    1   &   2   &   3   &   4   &     1   &   2   &   3   &   4   &

PRE—VERSE:

G |---------------------------------|---------------------------------|
D |---------------------------------|---------------------------------|
A |-0---r---------------------------|---------------------------------|
E |---------------------------------|-r-------------------------------|
    1   &   2   &   3   &   4   &     1   &   2   &   3   &   4   &

                                                              s s 
G |---------------------------------|---------------------------------|
D |-7-------------------------------|(7)------------------------------|
A |---------------------------------|-------------------------5h6h7---|
E |---------------------------------|---------------------------------|
    1   &   2   &   3   &   4   &     1   &   2   &   3   &   4   &

    s                           s s   s                           s s
G |---------------------------------|---------------------------------|
D |---------7-----------------------|---------7-------------------5h7-|
A |-0-r-0-----------------------5h7-|-0-r-0---------------------------|
E |---------------------------------|---------------------------------|
    1   &   2   &   3   &   4   &     1   &   2   &   3   &   4   &

    s                       s s s s   s
G |---------------------------------|---------------------------------|
D |---------7---------------5h7-7-7-|---------7---------7---\---------|
A |-0-r-0---------------------------|-0-r-0-------------------2---3---|
E |---------------------------------|---------------------------------|
    1   &   2   &   3   &   4   &     1   &   2   &   3   &   4   &

VERSE 3:
                   a                              s     s     s     s
G |---------------------------------|---------------------------------|
D |----------------2h4---2---0------|---------2-----3-----4-----5---6-|
A |-5-------5---0---------------3---|(3)--3-------3-----3-----3-------|
E |---------------------------------|---------------------------------|
    1   &   2   &   3   &   4   &     1   &   2   &   3   &   4   &

                      s s s s s s s   s s s s s s   s   s   s   s s s
G |---------------------------------|---------------------------------|
D |-7---7-------------------5---5-6-|-7-6-5---5-----------------------|
A |---------0---------0-5h7---7-----|-------7---7-r-6-r-5-r-4-r-3-----|
E |---------------------------------|-----------------------------5-0-|
    1   &   2   &   3   &   4   &     1   &   2   &   3   &   4   &

    s
G |---------------------------------|-----------------4---5-----------|
D |---------------------------------|-2---3---4---5-------------------|
A |-3h5-----5---------------0---3---|-------------------------3---4---|
E |-------------0---2---3-----------|---------------------------------|
    1   &   2   &   3   &   4   &     1   &   2   &   3   &   4   &

                          s s s s s                         s
G |---------------------------------|---------------------------------|
D |---------7-------------------5-6-|-7-------7-----------------------|
A |-0---------------------0-5h7-----|-----0-------------0---0-5-------|
E |---------------------------------|-----------------------------3---|
    1   &   2   &   3   &   4   &     1   &   2   &   3   &   4   &

    s       s       s
G |---------------------------------|---------------------------------|
D |---------2-r-2---3-r-3---4---5---|-6-------------------------------|
A |-3-r-3---------------------------|-----7---6---5-------------------|
E |---------------------------------|-----------------0---r-----------|
    1   &   2   &   3   &   4   &     1   &   2   &   3   &   4   &

INTERLUDE & GUITAR SOLO:
                            s  s
G |-----------------------------------|---------------------------------|
D |-------------------------11h12-r---|---------------------------------|
A |-----------------------------------|---------------------------------|
E |-12--\---\---\---\---r-------------|-0-------r-----------------------|
    1   &   2   &   3   &   4     &     1   &   2   &   3   &   4   &

                                                        s   s   s   s
G |---------------------------------|---------------------------------|
D |---------------------------------|---------------------------------|
A |---------------------------------|---------------------------------|
E |-12--\---\---\---\---r-----------|-r-----------------4-r-5-r-6-r-7-|
    1   &   2   &   3   &   4   &     1   &   2   &   3   &   4   &

    s             s s s   s   s   s   s                 s   s   s   s
G |---------------------------------|---------------------------------|
D |---------------------------------|---------------------------------|
A |-----------------7-5-r-----------|---------------------------------|
E |-0-r-0---r-----0-------7-r-5-r-4-|-0-r-0---r---------4-r-5-r-6-r-7-|
    1   &   2   &   3   &   4   &     1   &   2   &   3   &   4   &

    s             s s s   s   s s     s             s   s   s   s s
G |---------------------------------|---------------------------------|
D |---------------------------------|---------------------------------|
A |-----------------7-5-r-----------|---------------------------7-5-r-|
E |-0-r-0---r-----0-------7-r-5-4-r-|-0-r-0---r-----4-r-5-r-6-r-------|
    1   &   2   &   3   &   4   &     1   &   2   &   3   &   4   &

    s                 s   s   s       s                 s   s   s   s
G |---------------------------------|---------------------------------|
D |-------------------4-r-5-r-6-r---|---------------------------------|
A |-7-r-7---r-----------------------|-7-r-7---r-----------------------|
E |---------------------------------|-------------------4-r-5-r-6-r-7-|
    1   &   2   &   3   &   4   &     1   &   2   &   3   &   4   &

    s                     s   s s     s                 s   s   s s
G |---------------------------------|---------------------------------|
D |---------------------------------|---------------------------------|
A |-----------------------5-r-7-5-r-|---------------------------------|
E |-0-r-0---r-----------------------|-0-r-0---r---------4-r-5-r-6-7-r-|
    1   &   2   &   3   &   4   &     1   &   2   &   3   &   4   &

                        s s   s   s                     s   s   s s
G |---------------------------------|---------------------------------|
D |---------------------7-7-r-5-r---|---------------------------------|
A |-------------------------------X-|-7---5---r-----------------------|
E |-X-------------------------------|-------------------4-r-5-r-6-7-r-|
    1   &   2   &   3   &   4   &     1   &   2   &   3   &   4   &

    s                 s s s   s   s   s                 s s s s s s
G |---------------------------------|---------------------------------|
D |---------------------------------|---------------------------------|
A |---------------------------------|-------------------7-7-7-7-7-7-r-|
E |-0-r-0---r---------4-4-5-r-6-r-7-|-0-r-0---r-----------------------|
    1   &   2   &   3   &   4   &     1   &   2   &   3   &   4   &

CHORUS 2:

G |---------------------------------|---------------------------------|
D |---------------------------------|---------------------------------|
A |---------------------------------|---------------------------------|
E |-5-------------------0---5---3---|(3)------------------------------|
    1   &   2   &   3   &   4   &     1   &   2   &   3   &   4   &

                                                      s s
G |---------------------------------|---------------------------------|
D |---------------------------------|---------------------------------|
A |-5---------------5---------------|-----0---1---2---3-3-------------|
E |---------------------5---3-\-1---|(1)/-----------------0---2---3---|
    1   &   2   &   3   &   4   &     1   &   2   &   3   &   4   &

                                                          s
G |---------------------------------|---------------------------------|
D |---------------------------------|---------------------------------|
A |---------------------------------|---------------------------------|
E |-5-----------0---5---5---4---3---|(3)------------------3-3---3-r---|
    1   &   2   &   3   &   4   &     1   &   2   &   3   &   4   &

                  s                                    s      s
G |---------------------------------|---------------------------------|
D |---------------------------------|---------------------------------|
A |-5-------------0-5---4---3-\-----|------------------3------3-------|
E |-----------------------------1---|(1)-----------------3------3-----|
    1   &   2   &   3   &   4   &     1   &   2   &   3   &   4   &

OUTRO:

G |---------------------------------|---------------------------------|
D |---------------------------------|---------------------------------|
A |-0-------------------------------|(0)------------------------------|
E |---------------------------------|---------------------------------|
    1   &   2   &   3   &   4   &     1   &   2   &   3   &   4   &

G |---------------------------------|---------------------------------|
D |-7-------------------------------|(7)-----------------------ls-----|
A |---------------------------------|-------------------------7/12-\-\|
E |---------------------------------|---------------------------------|
    1   &   2   &   3   &   4   &     1   &   2   &   3   &   4   &

(Repeat next staff to fade-out):
       
G |---------------------------------|---------------------------------|
D |---------7-----------------------|(7)------------------------------|
A |-0-------------------------------|---------------------------------|
E |---------------------------------|---------------------------------|
    1   &   2   &   3   &   4   &     1   &   2   &   3   &   4   &

LEGEND:
() = sustained note
r = rest
h = hammer on
p = pull off
/ = slide up
\ = slide down
ls = legato slide
X = muted srike
s = 16th note (appears above bar)
a = acciaccatura (appears above bar)
Музыка не только фактор облагораживающий, воспитательный. Музыка – целитель здоровья (Бехтерев)
Мы стремимся к созданию контента, соответствующего всем нормам законодательства и уважающего интеллектуальную собственность. Мы также придаем большое значение тому, чтобы не задеть никого и не оскорбить чьи-либо чувства. Если у вас есть вопросы или претензии по размещенному материалу, пожалуйста, сообщите нам об этом на указанный адрес электронной почты: [email protected].
Шрифт
-
0
+
Прокрутка
-
0
+
Стоп
Наверх