Аккорды Lera Lynn - My Least Favorite Life

Добавлено: @romashka
Дата добавления: 26 Апреля 2018г.
Рейтинг:
0.0
Просмотров: 34
Транспонировать - +
Intro:              Dm                      Dm                                    A7
e|-----------------5-----------------------5--------------------------------------5----|
B|-----------------6-----------------------6--------------------------------------5----|
G|-----------------7-----------------------7--------------------------------------6----|
D|-----------------7-----------------------7------------8-7---5-------------------5----|
A|---5-7-8-7--4-5--5---------5-7-8-7--4-5--5-------5--------5----------5-8-7------7----|
E|-5-----------------------5------------------------------------------------------5----|

Verse:
A          A7             Dm
this is my least favorite life
A                 A7        Dm
the one where you fly and i don't
  A            A7         Dm
a kiss holds a million deceits
                    Gm
and a lifetime goes up
    A7
in smoke

A           A7            Dm
this is my least favorite you
    A           A7             Dm
who floats far above earth and stone
    A             A7           Dm
the nights that i twist on the rack
                   Gm
is the time that i feel
        A7
most at home

Chorus:
   Bb               Dm
we wandering in the shade
        Bb               Dm
and the rustle of fallen leaves
  A           A7        Dm
a bird on the edge of a blade
          Bb
lost now forever
    C         A        Dm
my love in a sweet memory

                   Dm                              
e|-----------------5--------------------------|
B|-----------------6--------------------------|
G|-----------------7--------------------------|
D|-----------------7--------------------------|
A|---5-7-8-7--4-5--5---------5-7-8-7--4-5-----|
E|-5-----------------------5------------------|

Verse:
      A           A7            Dm
the station rolls away from the train
    A           A7           Dm
the blue pulls away from the sky
    A          A7         Dm
the whisper of two broken wings
              Gm
maybe they're yours
              A7
maybe they're mine

A          A7             Dm
this is my least favorite life
A          A7             Dm
the one where i'm out of my mind
A                    A7          Dm
the one where you're just out of reach
                 Gm
the one where i stay
        A7
and you fly

Chorus:
    Bb               Dm
we wandering in the shade
        Bb               Dm
and the rustle of fallen leaves
  A           A7        Dm
a bird on the edge of a blade
          Bb
lost now forever
    C          A       Dm
my love in a sweet memory

                   Dm                              
e|-----------------5--------------------------|
B|-----------------6--------------------------|
G|-----------------7--------------------------|
D|-----------------7--------------------------|
A|---5-7-8-7--4-5--5---------5-7-8-7--4-5~----|
E|-5-----------------------5------------------|
comments powered by Disqus
Наверх