Аккорды Lida - Девочка снюс

Добавлено: @romashka
Дата добавления: 30 Августа 2022г.
Рейтинг:
0.0
Просмотров: 62
Транспонировать - +
E|------------------------------------------------------—|
B|------------------------------------------------------—|
G|------------------------------------------------------—|
D|------------------------------------------------------—|
A|----------------7-7-7-7-7-7----------------------------|
E|--9-9-9-9-9-9-----------------5-5-5-5-5-5--3-3-3-3-3-3-|

E|------------------------------------------------------—|
B|------------------------------------------------------—|
G|------------------------------------------------------—|
D|------------------------------------------------------—|
A|----------------7-7-7-7-7-7----------------------------|
E|--9-9-9-9-9-9-----------------5-5-5-5-5-5--3-3-3-3-3-3-|

[Куплет 1]:
От сирен убегаем
Федералы не спалят нас
Куда несёт нас — не знаю
(А-а)
На ремне значки от Винкс
А на теле skinny jeans
Светофоры одни
Ночью слепят фонари
Твои ноги в крови
И ты пьяная в нули
Босиком идём с ней
Вместе по сырой земле, е-е-е
И, может, это так тупо
Я полюбил тебя за вкус
Ты обжигаешь мои губы грубоСука

[Припев]:
Я с тобою усну (А), я с тобою проснусь (У)
Я хочу с тобой летать, моя девочка-снюс
Ну а завтра опять (опять) в тебя я влюблюсь
Обволакивай меня-а-а-а (моя девочка)
Я с тобою усну, я с тобою проснусь
Я хочу с тобой летать, моя девочка-снюс
Ну а завтра опять в тебя я влюблюсь
Обволакивай меня (ха, моя девочка)

[Постприпев]
Моя девочка-снюс (что?)
Снюс (что?), снюс (что?), снюс (что?)
Снюс (что?), снюс (что?), снюс, снюс
Снюс, снюс, снюс, снюс
Снюс, снюс, снюс, снюс

[Куплет 2]:
Мы ебёмся по жизни
Под мотивы нулевых (нулевых)
Постоянно на шизе
(А-а)
Расцветают васильки, налетели мотыльки
Но тебе неважно, на твоих коленях синяки
У тебя на языке переплелись наши мирки (уа-а)
Не благодаря, но вопреки
И мы снова до утра по трамвайным путям
Песни «Сплин»'а, и бутылка вина
И ты уже не стоишь на ногах
Ты капля любви в этой луже говна
[Припев]:
Я с тобою усну (А), я с тобою проснусь (У)
Я хочу с тобой летать, моя девочка-снюс
Ну а завтра опять (опять) в тебя я влюблюсь
Обволакивай меня-а-а-а (моя девочка)
Я с тобою усну, я с тобою проснусь
Я хочу с тобой летать, моя девочка-снюс
Ну а завтра опять в тебя я влюблюсь
Обволакивай меня (ха, моя девочка)

[Постприпев]
Моя девочка-снюс (что?), снюс (что?), снюс (что?), снюс (что?)
Снюс (что?), снюс (что?), снюс, снюс
Снюс, снюс, снюс, снюс
Снюс, снюс, снюс, снюс

[Аутро]
Я с тобою усну, я с тобою проснусь
Я хочу с тобой летать, моя девочка-снюс
Ну а завтра опять (опять) в тебя я влюблюсь
Обволакивай меня-а-а-а (моя девочка-снюс)
Я с тобою усну, я с тобою проснусь
Я хочу с тобой летать, моя девочка-снюс
Ну а завтра опять в тебя я влюблюсь
Обволакивай меня (ха, моя девочка) 

Табулатуру в начале играем до куплета, в куплете играем один раз по 1 ноте.
Наверх