Аккорды «Life of Agony»

Life of Agony
Группу сформировали летом 1989 года вокалист Кейт Капуто, бас-гитарист Алан Роберт и гитарист Джои З. Перед записью дебютного альбома River Runs Red (1993), перебрав несколько барабанщиков, они взяли ударника Сэла Абрускато (Type O Negative), после чего заключили контракт с Roadrunner Records. За River Runs Red последовал более эмоциональный Ugly (1995), но, после тура в поддержку альбома, барабанщик Абрускато покинул группу. Место за ударной установкой занял Дэн Ричардсон (Pro-Pain, Crumbsuckers).… Читать полностью... Группу сформировали летом 1989 года вокалист Кейт Капуто, бас-гитарист Алан Роберт и гитарист Джои З. Перед записью дебютного альбома River Runs Red (1993), перебрав несколько барабанщиков, они взяли ударника Сэла Абрускато (Type O Negative), после чего заключили контракт с Roadrunner Records. За River Runs Red последовал более эмоциональный Ugly (1995), но, после тура в поддержку альбома, барабанщик Абрускато покинул группу. Место за ударной установкой занял Дэн Ричардсон (Pro-Pain, Crumbsuckers). Вокалист Капуто покинул группу после выхода Soul Searching Sun (1997), заявив, что он больше не интересуется такой музыкой, какую делает Life of Agony. Затем группа провела тур с Уитфилдом Крэйном, экс-вокалистом Ugly Kid Joe, и вернулась назад в студию только для того, чтобы понять, что они не хотят продолжать играть под названием Life of Agony без Капуто. В 1999 году музыканты объявили о распаде группы. В 2000 году вышел концертный CD с акустического выступления Life of Agony на датском фестивале Dutch Lowlands Festival 1997. 3 и 4 января 2003 года группа воссоединилась в оригинальном составе для двух аншлаговых концертов в нью-йоркском Irving Plaza. Оба концерта были записаны, и выпущены позднее в том же году на CD/DVD. Результатом воссоединения группы стало еще несколько концертов и появлений на европейских фестивалях, а затем запись в 2005 году альбома Broken Valley, первым новым материалом группы с 1997-го. Также, в течение 2005 года, Life of Agony провели серию концертов с Megadeth, Dream Theater и другими группами в рамках тура Gigantour. Спустя три года после этого тура, Life of Agony выпустили переиздание River Runs Red с бонусными треками и видео с ранних этапов творчества группы. Недавно Кейт Капуто принял участие в песне группы Within Temptation «What Have You Done», ставшей небольшим хитом. Музыка Как говорят сами музыканты, наибольшее влияние на группу оказали такие различные исполнители, как Radiohead, Metallica, Pink Floyd и Black Sabbath. Капуто и Роберт написали все песни группы, но до Soul Searching Sun никогда не писали их вместе. Одним из наиболее сильных различий между альбомами середины 90-х River Runs Red и Ugly, и Broken Valley, вышедшим в 2005 году стала перемена, произошедшая с вокальным стилем Кейта Капуто, который изменился на позднем творчестве группы с баритона в духе Danzig на более легкий и традиционный рок-вокал. Музыканты группы продолжают выступать и сочинять музыку вместе, наравне с работой над личными проектами. Капуто записал несколько сольных записей с европейскими музыкантами и провел туры в поддержку этих альбомов. В настоящее время группа делает заключительные штрихи над новым DVD с европейского тура группы в 2007 году. В 2006 году Роберт, основной автор песен Life of Agony, организовал группу Spoiler NYC, которая записала альбом Grease Fire in Hell’s Kitchen. Джои З. В настоящее время выступает с воссоединенной группой Carnivore. В 2006 году песня «River Runs Red» использовалась в телесериале "Офис" в эпизоде «Initiation». Скрыть...
Популярные аккорды Life of Agony:
алфавиту | просмотрам | случайно
  • Intro:  G - D - Am
    
    
                  G      - D - Am
    I look in the mirror
                     G   - D - Am
    and guess what I see
                     G      - D - Am
    A baby blue eyed spirit
                        G     - D - Am
    who seeks…
  • Symbols used:
    ~~~ - vibrato
    5p4 - pull of
    5b6 - bend half step
    4/2 - slide down
    /14 - slide up
     x  - muted
    |--------------------------------------------------------12-12-14|
    |-------7--4~~~--5-4-4-5-5p4/2------------3-4-5b6-4--/14---------|
    |-4~~~--------------------------4-4-x-x-4------------------------|
    |----------------------------------------------------------------|
    |----------------------------------------------------------------|
    |----------------------------------------------------------------|
    
    
    |-12----14-12-14-------------------------------------------------|
    |----14----------------------------------------------------------|
    |----------------------------------------------------------------|
    |----------------------------------------------------------------|
    |----------------------------------------------------------------|
    |----------------------------------------------------------------|…
  • Intro  just one chord keep strumming as much as you like
    e|---------|
    B|---------|
    G|-9-------|
    D|-10------|
    A|-10------|
    E|-8-------|
    
    Then he goes into this part (!just the chords+progression
    not the strumming pattern!!!)
    e|----|---|---|---|…
  • TUNE DOWN ONE WHOLE STEP: Dropped C tuning
    
      X  - palm mute string on this fret
      6^ - play harmonic on this fret 
    
    Riff 1 a
    D:|--------------------------------------------------------------------|
    A:|--------------------------------------------------------------------|
    F:|--------------------------------------------------------------------|
    C:|-5-5-5-5-5-5-5-5-5-5-5-5-5-5-5-5------------------------------------|
    G:|-3-3-3-3-3-3-3-3-3-3-3-3-3-3-3-3-/-6-X-X-X-X-X-X-X-X----------------|
    C:|---------------------------------/-6-X-X-X-X-X-X-X-X----------------|
    
    Riff…
  • Tune The Guitar 1 step down
    
    Notation Legend:
    ----------------
     x     : palm muted chord
    
    
    Intro
    |-----------------------------------------|
    |-----------------------------------------|
    |-----------------------------------------|
    |--9-9---xx-6--x-7-----2-2--xx-9--x-7-----|
    |--9-9---xx-6--x-7-----2-2--xx-9--x-7-----|
    |--7-7---xx-4--x-5-----0-0--xx-7--x-5-----|
    
    Fill…
  • Tune The Guitar 2 steps down, Life of Agony plays the Chords on the Bass
    Guitar, so that's where they get that fat sound from.)
    
    Notation Legend:
    ----------------
    
          : pick slide
     ^     : bend 1 tone up and release to…
  • TUNE DOWN ONE WHOLE STEP: Dropped C tuning
    
        INTRO       clean guitar                   
    D:|------------------------|------------------------|
    A:|------------------------|------------------------|
    F:|------------------------|------------------------|
    C:|------------------------|------------------------|
    G:|-----0-----0------0-----|-------0-----0-----0----|
    C:|--0-----0-------0---0---|----3-----3------3---3--|…
  • TUNE DOWN ONE STEP
    
               VERSE
    D:|-----||--------------------------|--------------------------|
    A:|-----||--------------------------|--------------------------|
    F:|-----||*-------------------------|--------------------------|
    C:|-----||*-------------------------|--------------------------|
    G:|-2-2-||-5--5--5--2--2--2--2--2-2-|-5--5--5--2--2--2--2--2-2-|
    D:|-0-0-||-3--3--3--0--0--0--0--0-0-|-3--3--3--0--0--0--0--0-0-|…
  • TUNE DOWN ONE WHOLE STEP:
    6=D	3=F
    5=G	2=A
    4=C	1=D
    
         INTRO                               8 TIMES  
    D:||----------------------|----------------------||
    A:||----------------------|----------------------||
    F:||*---------------------|---------------------*||
    C:||*-----------------6---|-7b(9)b(7)-6------6--*||
    G:||-7b(9)b(7)-7----7---7-|----------------7---7-||
    D:||----------------------|----------------------||…
  • TUNE DOWN ONE STEP
    
    D:|--------------------||-------------------|-------------------|
    A:|--------------------||-------------------|-------------------|
    F:|--------------------||*------------------|-------------------|
    C:|--------------------||*--------------5---|---------------5---|
    G:|-2--5--7--8--7--5---||------7------7---7-|------7------7---7-|
    D:|-0--3--5--6--5--3---||-0------0----------|-0------0----------|…
  • TUNE DOWN ONE WHOLE STEP: Dropped C tuning
    
    Intro
    D:|--------------------------------------------------------------|
    A:|--------------------------------------------------------------|
    F:|--------------------------------------------------------------|
    C:|--------------------------------------------------------------|
    G:|--7/8-8-8-8-8-8-8-8-7/8-8-8-8-10-10-10-10---------------------|
    C:|--------------------------------------------------------------|
    
    mainriff…
  • TUNE DOWN ONE WHOLE STEP: Dropped C tuning
    
      Intro/Chorus riff 
    D:|-------------------------------|
    A:|-------------------------------|
    F:|-------------------------------|
    C:|-------------------------------|
    G:|-----3-------------------------|
    C:|-0-0---3--0-3^5^3--0--3--5--6--|…
  • TUNE DOWN ONE WHOLE STEP: Dropped C tuning
    
    Riff 1 - clean guitar - feel free with the rhythm
    D:|--------------------|
    A:|--------------------|
    F:|--------------------|
    C:|----------5-(5)-----|
    G:|-5-5-X-X--3-(3)-----|
    C:|-5-5-X-X------------|…
  • TUNE DOWN ONE WHOLE STEP:
    6=D	3=F
    5=G	2=A
    4=C	1=D
    
        INTRO                              W/VIBRATO & SLIGHT BEND
    D:|---------------------------------|---------------------------------|
    A:|---------------------------------|---------------------------------|
    F:|---------------------------------|---------------------------------|
    C:|---------------------------------|---------------------------------|
    G:|---------------------------------|---------------------------------|
    D:|---------------------------------|-/4------------------------------|…
  • TUNE DOWN ONE WHOLE STEP: Dropped C Tuning
    
        INTRO                             
    D:|---------------------------------|
    A:|---------------------------------|
    F:|---------------------------------|
    C:|---------------------------------|
    G:|----0-----(0)--------------------|
    C:|----0-----(0)--------------------|…
  • TUNE DOWN ONE WHOLE STEP: Dropped C tuning
    
      Main riff   
    D:|--------------------------------------------------------------------|
    A:|--------------------------------------------------------------------|
    F:|--------------------------------------------------------------------|
    C:|--------------------------------------------------------------------|
    G:|--------------------------------------------------------------------|
    C:|-4-4-4--2-4-4-4-4--2-2-2--1-2-2-2-2-0-0-0-0-0-0-0-0-0-0-0-0-0-0-0-0-|…
  • TUNE DOWN ONE WHOLE STEP: Dropped C tuning
    
     INTRO 
    
       Riff 1  (2 times) 
    
      This Part 3 times             than this Part           
    D:|-------------------------|----------------------------|
    A:|-------------------------|----------------------------|
    F:|-------------------------|----------------------------|
    C:|-------------------------|----------------------------|
    G:|-------8~----------------|---7-7-7-7----3-3-3-3-------|
    C:|--0--7-----7--3^5^3-----|---7-7-7-7----3-3-3-3-3^5^3-|…
  • TUNE DOWN ONE WHOLE STEP: Dropped C tuning
    
    mainriff - feel free for the rhythm
    D:|----------------------------------------------------------|
    A:|----------------------------------------------------------|
    F:|----------------------------------------------------------|
    C:|----------------------------------------------------------|
    G:|-2-2-2--2----2-2-2--2-0-(0)---2-2-2--2---2-2-2--2-5-5-5---|
    C:|-2-2-2--2----2-2-2--2-0-(0)---2-2-2--2---2-2-2--2-5-5-5---|
    
    verseriff…
  • TUNE DOWN ONE WHOLE STEP: Dropped C tuning
    
    Intro
    
    weird guitar noise effects
    
      Verse 1 - Riff 1 (2 times)
    
          this Part 3 times              than this Part
    D:|------------------------------|------------------------|
    A:|------------------------------|------------------------|
    F:|------------------------------|------------------------|
    C:|------------------------------|------------------------|
    G:|-3~---3~---3~---3~----5-5-5-5-|-3-3-3-3----------------|
    C:|---0----0----0----0-----------|----------5-5-5-5--5--3-|
    
    Chorus…
  • TUNE DOWN ONE WHOLE STEP: Dropped C tuning
    
      intro  
    D:|----11~~~~~~~~---------------11~~~~~~~~~~~~----------------------|
    A:|----------------8~~~~~~~~~~-----------------8~~~~~~~~~~~~--------|
    F:|-----------------------------------------------------------------|
    C:|-----------------------------------------------------------------|
    G:|-----------------------------------------------------------------|
    C:|-----------------------------------------------------------------|…
  • TUNE DOWN ONE WHOLE STEP:
    
        INTRO / Outro                  
    D:|------------------------------|-----------------------|
    A:|------------------------------|-----------------------|
    F:|------------------------------|-----------------------|
    C:|--------------3---------------|-----------3-----2--(2)|
    G:|--2--2--3--4--1--4--3--2--(2)-|--2--3--4--1--4--0--(0)|
    D:|--0--0--1--2-----2--1--0--(0)-|--0--1--2-----2--------|
    
    
    Verse…
  • TUNE DOWN ONE WHOLE STEP:
    6=D	3=F
    5=G	2=A
    4=C	1=D
    
         INTRO           11 TIMES             
    D:||--------------------------||----------------------------|
    A:||--------------------------||----------------------------|
    F:||*------------------------*||----------------------------|
    C:||*------------------------*||--------------8-8-8-8-8-8-8-|
    G:||-------7-6------6--6^7----||-------7-6----6-6-6-6-6-6-6-|
    D:||-0--0---------0-----------||-0--0-----------------------|…
  • TUNE DOWN ONE WHOLE STEP:
    6=D	3=F
    5=G	2=A
    4=C	1=D
    
         VERSE 1                 4 TIMES    2
    D:||----------------|----------------||-----------------|-----------------|
    A:||----------------|----------------||-----------------|-----------------|
    F:||*---------------|---------------*||-5-5-5-5-5-5-5-5-|-----------------|
    C:||*2--------------|-7-------------*||-5-5-5-5-5-5-5-5-|-5-5-5-5-5-5-5-5-|
    G:||-2--------------|-7--------------||-3-3-3-3-3-3-3-3-|-5-5-5-5-5-5-5-5-|
    D:||-0--------------|-5--------------||-3-3-3-3-3-3-3-3-|-3-3-3-3-3-3-3-3-|…
  • TUNE DOWN ONE WHOLE STEP: Dropped C tuning
    
        INTRO
    D:|---------------------------------|
    A:|---------------------------------|
    F:|---------------------------------|
    C:|---------------------------------|
    G:|--3-3-3-3-3----------------------|
    C:|---------------------------------|…
  • TUNE DOWN ONE WHOLE STEP: Dropped C tuning
    
    p.m.- palm mute note short
    
    Intro - little bit lead guitar .... I tab it later !!!
    
    Riff 1 
    D:|--------------------------------------------------------------|
    A:|--------------------------------------------------------------|
    F:|--------------------------------------------------------------|
    C:|--------------------------------------------------------------|
    G:|-------------------------------------------------------X-X-X--|
    C:|-3-3-3-3--4---3-3--3-3--3-4-3---3-3-3-3--4----3-3--3-3-X-X-X--|…
  • Tune The Guitar 1 step down
    
    Notation Legend:
    ----------------
     ~     : vibrato
     ^     : bend
    
    
    Rhy Fig 1                                     
                           P.M.------------|        
    D|:------------------------------------:|
    A|:------------------------------------:|
    F|:------------------------------------:|
    C|:-------3---3-5-7--------------------:|
    G|:-(7)/5---5-------5~-----------------:|
    D|:--------------------0-0-0-0-0-0-0-0-:|
    
    Rhy…
  • TUNE DOWN ONE WHOLE STEP: Dropped C tuning
    
    Intro
    
    Riff 1         3x                        1x
    D:|------------------------------|-----------------------------|
    A:|------------------------------|-----------------------------|
    F:|-----------7------------------|-----------------------------|
    C:|-10--9--7--5------------------|-10--9--7--8--(8)------------|
    G:|--8--7--5-----5--5-/-7--5----|--8--7--5--6--(6)------------|
    C:|------------------------------|-----------------------------|
    
    Verseriff…
  • TUNE DOWN ONE WHOLE STEP: Dropped C tuning
    
    Bass intro
    
    Guitar came in                           
    D:|----------------------|
    A:|----------------------|
    F:|----------------------|
    C:|-3-3-3-3-3-3-3--------|
    G:|-1-1-1-1-1-1-1--------|
    C:|----------------------|…
  • TUNE DOWN ONE STEP
    
         VERSE                     (No repeat on 2nd VERSE) 
    D:||------------|------------|------------|------------||
    A:||------------|------------|------------|------------||
    F:||*-----------|------------|------------|-----------*||
    C:||*-----------|------------|------------|-----------*||
    G:||-7----------|(7)-----10-|-7----------|(7)------5/-||
    D:||------------|------------|------------|------------||…
Наверх