Аккорды Linkin Park - One More Light

Добавлено: @romashka
Дата добавления: 22 Ноября 2017г.
Рейтинг:
0.0
Просмотров: 386
Транспонировать - +
Вступление:
1)--7-----7-----7-----7-----5-----5-----5-----5-----7-----7-----7-----7-----7-----7-----7-----7-----7
2)---------------------------------------------------------------------------------------------------
3)--0-----0-----0-----0-----0-----0-----0-----0-----0-----0-----0-----0-----0-----0-----0-----0-----0
4)---------------------------------------------------------------------------------------------------
5)7----7-----7-----7-----3-----3-----3-----3-----5-----5-----5-----5-----5-----5-----5-----5-----5---
6)---------------------------------------------------------------------------------------------------

Куплет :
1)--7-----7-----7-----7-----5-----5-----5-----5-----7-----7-----7-----7-----7-----7-----7-----7-----7-----5-----5-----5-----5-----5
2)---------------------------------------------------------------------------------------------------------------------------------
3)--0-----0-----0-----0-----0-----0-----0-----0-----0-----0-----0-----0-----0-----0-----0-----0-----0-----0-----0-----0-----0-----0
4)---------------------------------------------------------------------------------------------------------------------------------
5)7----7-----7-----7-----3-----3-----3-----3-----5-----5-----5-----5-----5-----5-----5-----5-----5-----5-----5-----5-----5-----5---
6)---------------------------------------------------------------------------------------------------------------------------------

Припев:
1)--7-----7-----7-----7-----5-----5-----5-----5-----7-----7-----7-----7-----7-----7-----7-----7-----7-----5-----5-----5-----5-----5---------------------------------------------
2)--------------------------------------------------------------------------------------------------------------------------------------0-----0-----0-----0-----0-----0-----0---
3)--0-----0-----0-----0-----0-----0-----0-----0-----0-----0-----0-----0-----0-----0-----0-----0-----0-----0-----0-----0-----0-----0-----0-----0-----0-----0-----0-----0-----0---
4)------------------------------------------------------------------------------------------------------------------------------------------------------------------------------
5)7----7-----7-----7-----3-----3-----3-----3-----5-----5-----5-----5-----5-----5-----5-----5-----5-----5-----5-----5-----5-----5------------------------------------------------
6)-----------------------------------------------------------------------------------------------------------------------------------3-----3-----3-----3-----3-----3-----2-----2
_______________________
Последовательность

1)Вступлние
2)Куплет
3)Припев
4)Куплет
5)Припев
6)Соло (табы от вступления)
7)Припев
8)Соло (те же табы вступления,
только можно чуть медленнее и более тише к концу)
Наверх