Аккорды «Liquid Tension Experiment»

Liquid Tension Experiment
Прогрессивный суперпроект "Liquid tension experiment" был создан в конце 1997 года четырьмя выдающимися музыкантами. Участник "Dream theater" Джон Петруччи (р. 12 июля 1967, Нью-Йорк) вырос в музыкальной семье и гитару начал осваивать еще с двенадцати лет. Его коллега по "Theater" барабанщик Майк Портной также начал увлекаться музыкой с раннего возраста. Большое влияние на него оказали "Beatles", "Kiss" и Фрэнк Заппа, а среди своих любимых ударников… Читать полностью... Прогрессивный суперпроект "Liquid tension experiment" был создан в конце 1997 года четырьмя выдающимися музыкантами. Участник "Dream theater" Джон Петруччи (р. 12 июля 1967, Нью-Йорк) вырос в музыкальной семье и гитару начал осваивать еще с двенадцати лет. Его коллега по "Theater" барабанщик Майк Портной также начал увлекаться музыкой с раннего возраста. Большое влияние на него оказали "Beatles", "Kiss" и Фрэнк Заппа, а среди своих любимых ударников он называет Нила Перта, Кита Муна, Саймона Филипса и Джона Бонэма. Третьим участником "Liquid tension experiment" стал басист Тони Левин (р. 6 июня 1946, Бостон). Из всей четверки у Тони самый богатый послужной список. Левин раньше работал с Элисом Купером, Лу Ридом, Питером Гэйбриэлом и "King Crimson". Дополнил коллектив клавишник-виртуоз Джордан Рудесс, ранее выступавший в "Dixie dregs", а последнее время также околачивавшийся в "Dream theater". Его слава на тот момент была так велика, что по опросам журнала "Keyboard Magazine" Джордан был назван вторым в мире клавишником после Кита Эмерсона. Итак, вся четверка собралась в одной из нью-йоркских студий и под руководством продюсеров Пита Мортичелли и Майка Варнея всего за неделю записала альбом "Liquid tension experiment". Диск был издан специализировавшимся по прогрессиву лейблом "Magna carta records". На этой пластинке было намешано большое количество разных стилей (джаз, фьюжн, хард, арт, фанк и пр.), а продолжительность треков варьировалась от двух до тридцати минут. Несмотря на короткий период сессий, альбом производил впечатление хорошо подготовленной работы, что еще раз подтвердило высокий уровень музыкантов. Релиз получил положительные отклики, и продавался очень неплохо, что побудило квартет на следующий год выпустить еще один диск, "Liquid tension experiment 2". На этот раз сессии проходили в два приема. Первая часть состоялась в октябре, и была прервана из-за того, что Джон Петруччи отправился к своей жене, собиравшейся рожать. Оставшаяся без своего коллеги троица, не зная чем им заняться, принялась снова джемовать, и в результате подготовила композицию с символическим названием "When The Water Breaks" ("Когда отошли воды"). Этот семнадцатиминутный трек стал центральной вещью "Liquid tension experiment 2". Остальные композиции были записаны в ноябре, когда в компанию вернулся Джон, посвятивший себя перед этим на некоторое время жене и маленькой дочурке. Альбом, изданный все тем же "Magna carta", появился в продаже в начале 1999-го. Композиционно диск выглядел получше своего предшественника, хотя также как и первая работа оставлял впечатление непринужденной джем-сессии. Один из треков этого альбома, "Acid Rain", впоследствии попал на концертник "Dream theater" "Live Scenes From New York". Скрыть...
Популярные аккорды Liquid Tension Experiment:
алфавиту | просмотрам | случайно
  • ~   vibrato
    /   slide up
       slide down
    ^   bend
    v   hit the note, then whammy down and up quickly
    h   hammer on
    p   pull off
    
    
    Open with Piano
    
    
    |------------------------------------|--------------------------------------|
    |------------------------------------|--------------------------------------|
    |------10---------10-/-12~~~~~-------|-------------7------------------------|
    |-10----------10---------------------|--7-8-10~~------5-/-7^8^7--53-3/5~---|
    |------------------------------------|--------------------------------------|
    |------------------------------------|--------------------------------------|
    
    |------------------------------------|--------------------------------------|
    |------------------------------------|--------------------------------------|
    |------10---------10-/-12----/-14v---|--12----------------------------------|
    |-10----------10---------------------|---------12----15--15---14v-----------|
    |------------------------------------|--------------------------------------|
    |------------------------------------|--------------------------------------|
    
    |------------------------------------|--------------------------------------|
    |-------------------17--17--18~~-----|--------------------------------------|
    |-14-15--15/17~~---------------------|-15----14--15--17~--------------------|
    |------------------------------------|---------------------15--14--12~~-----|
    |------------------------------------|--------------------------------------|
    |------------------------------------|--------------------------------------|
    
    |-------------------15--15-/17--13~--|--------------------------------------|
    |------------------------------------|--------------------------------------|
    |-14-15--15/17~~---------------------|-15--14--12---10-/--12--12~~--------|
    |------------------------------------|--------------------------------------|
    |------------------------------------|--------------------------------------|
    |------------------------------------|--------------------------------------|
    
    |------------------------------------|--------------------------------------|
    |------------------------------------|--------------------------------------|
    |-14---15--15/17~~--12---14---15~~--|-10--12--12/14~---10--9--------------|
    |------------------------------------|----------------------------14^15^14--|
    |------------------------------------|--------------------------------------|
    |------------------------------------|--------------------------------------|
    
    |------------------------------------|--------------------------------------|
    |------------------------------------|--------------------------------------|
    |------------------------------------|-/14-14--15~-----1412--10-/-12~~----|
    |-12---14--15~----14-12-----14--15---|--------------------------------------|
    |-----------------------15-----------|--------------------------------------|
    |------------------------------------|--------------------------------------|
    
    |------------------------------------|--------------------------------------|
    |------------------------------------|--------------------------------------|
    |-14---15--15/17~~--12---14---15~~--|-10--12--12^14^12--10--109~~--------|
    |------------------------------------|--------------------------------------|
    |------------------------------------|--------------------------------------|
    |------------------------------------|--------------------------------------|
    
    |------------------------------------|------------17-17-18---171513/15~---|
    |---------------------------------/15|--17--18~-----------------------------|
    |-------------------------------15---|--------------------------------------|
    |-14^15^14--12h14p1210--/12-15------|--------------------------------------|
    |------------------------------------|--------------------------------------|
    |------------------------------------|--------------------------------------|
    
    |------------------------------------|--------------------------------------|
    |-17^18^17--15--13-------------------|--------------------------------------|
    |-------------------14---------------|--------------------------------------|
    |-----------------------15~~--------|-14^15^14~~---------------------------|
    |------------------------------------|--------------------------------------|
    |------------------------------------|--------------------------------------|
    
    |------------------------------------|--------------------------------------|
    |------------------------------------|--------------------------------------|
    |------------------------------------|--------------------------------------|
    |-9--9--10~-------------------------|-/13---12^13^12~~---------------------|
    |------------------------------------|---------------------12--12---13~~---|
    |------------------------------------|--------------------------------------|
    
    |------------------------------------|--------------------------------------|
    |------------------------------------|--------------------------------------|
    |------------------------------------|-14---15~~-----17-^-18-^-17~~--------|
    |------------------------------------|--------------------------------------|
    |--15----12---13~~-------------------|--------------------------------------|
    |------------------------------------|--------------------------------------|…
  • vol.swell
    
       0:33              0:35
    E :-----------------|-10--------------|
    B :-10--------------|-----------------|
    G :-----------------|-----------------|
    D :-----------------|-----------------|
    A :-----------------|-----------------|
    E…
  • Legend
    ------
    
     h  = hammer-on
     p  = pull-off
     b  = bend
     r  = bend release
     /  = slide up/down
     = natural harmonic
    [5] = artifical harmonic
     ~  = vibrato
     tr = trill
    
    
    
    
    E|-----------------------------------|---------------------------------|----
    ---------
    B|-----------------------------------|---------------------------------|----
    ---------
    G|-----------------------------------|---------------------------------|----
    ---------
    D|-----------------------------------|---------------------------------|----
    ---------
    A|-----------------------------------|-----------------5p0---7---------|----
    ---------
    E|---7p0-------------7p0-------------|-7p0-----------------7---5p7-----|-7p0
    ---------
    B|-------7p0-5-3-0-0-----7p0-5-3-0-0-|-----7p0-5-3-0-0-------------0-0-|----
    -7p0-5-3-
    
    
    
    
    E|---------------------|---------------------------------|------------------
    ---------
    B|---------------------|---------------------------------|------------------
    ---------
    G|---------------------|-------7-----9p7---7-------------|------------------
    ---------
    D|---------------------|-9-7-9---7-9-----9---9-7-9-7-----|------------------
    ---------
    A|---------------------|-----------------------------9-7-|------------------
    ---------
    E|-----7p0-------------|---------------------------------|-7p0-------------7
    p0-------
    B|-0-0-----7p0-5-3-0-0-|---------------------------------|-----7p0-5-3-0-0--
    ---7p0-5-…
  • Legend
    ------
    
     h  = hammer-on
     p  = pull-off
     b  = bend
     r  = bend release
     /  = slide up/down
     = natural harmonic
    [5] = artifical harmonic
     ~  = vibrato
     tr = trill
    
    E|--------8/10---|-----|---------------|---------|-------8/10---|-----|-
    B|--8-7-8------8-|-7---|---------10----|---------|-8-7-8------8-|-7---|-
    G|---------------|---9-|---------------|-5/7-----|--------------|---9-|-
    D|---------------|-----|-10-9-10----10-|-----7-9-|--------------|-----|-
    A|---------------|-----|---------------|---------|--------------|-----|-
    E|---------------|-----|---------------|---------|--------------|-----|-
    
    E|------------------|--|-------|-----|-----------|------------|-------|-
    B|------------------|--|-----8-|-7-8-|-----------|------------|-----8-|-
    G|------------------|--|-7-9---|-----|-5-7-7/9---|--------7---|-7-9---|-
    D|-10-9-10-7/9----7-|--|-------|-----|---------7-|------7---7-|-------|-
    A|-------------10---|--|-------|-----|-----------|--7-9-------|-------|-
    E|------------------|--|-------|-----|-----------|------------|-------|-
    
    E|----7-|-8/10-8---|-----|--|-----------------|-----------------|-------
    B|-10---|--------8-|-----|--|---------------0-|-------0-1-----3-|-------
    G|------|----------|-5-7-|--|-0-------2-------|-----2-----------|-----0-
    D|------|----------|-----|--|---5-4-5---4-0---|---0---------2---|---4---
    A|------|----------|-----|--|-----------------|-----------0-----|-2-----
    E|------|----------|-----|--|-----------------|-3---------------|-------
    
    E|-0---2-3--^3-|-3/5-2-------|-----------------|-----------------|-----
    B|----------^3-|-------------|---------------0-|-------0-1-----3-|-----
    G|----------^2-|-------0-----|-0-------2-------|-----2-----------|-----
    D|----------^0-|---------4-0-|---5-4-5---4-0---|---0---------2---|---4-
    A|---3------^--|-------------|-----------------|-----------0-----|-2---
    E|----------^--|-------------|-----------------|-3---------------|-----
    
    E|---0---2-3--^5-|-72-|-------8/10---|-----|---------------|-----------
    B|------------^5-|-----|-8-7-8------8-|-7---|---------10----|-----------
    G|-0----------^5-|-----|--------------|---9-|---------------|-5/7-------
    D|------------^4-|-----|--------------|-----|-10-9-10----10-|-----7-9-7-
    A|-----3------^--|-----|--------------|-----|---------------|-----------
    E|------------^--|-----|--------------|-----|---------------|-----------
    
    E|-------|-------8/10---|---------|------------------|--|-------|-----|-
    B|-----7-|-8-7-8------8-|-7h8p7---|------------------|--|-----8-|-7-8-|-
    G|---7---|--------------|-------9-|------------------|--|-7-9---|-----|-
    D|-9-----|--------------|---------|-10-9-10-7/9----7-|--|-------|-----|-
    A|-------|--------------|---------|-------------10---|--|-------|-----|-
    E|-------|--------------|---------|------------------|--|-------|-----|-
    
    E|------------|------------------|-------|-------7-|-8/10-8---|-----|---
    B|------------|---------------|-----8-|-10-10---|--------8-|-----|---
    G|----7-7/9---|---------------|-7-9---|---------|----------|-5-7-|---
    D|-10-------7-|---------------|-------|---------|----------|-----|---
    A|------------|---------------|-------|---------|----------|-----|-6-
    E|------------|------------------|-------|---------|----------|-----|---
    
    E|---------6-|--^5-6-----6-|-6-------6-|-4---------|------------|-----|-
    B|-----6-6---|--^6-----6---|---6---6---|---4-3---4-|-4--------4-|-6-6-|-
    G|---0-------|--^5---3-----|-----6-----|-----------|-3------3-3-|-5-7-|-
    D|-8---------|--^----------|-----------|-----------|-5----5-----|-8-8-|-
    A|-----------|--^----------|-----------|-2---------|-6--6-------|-8-8-|-
    E|-----------|--^----------|-----------|-------4---|-3----------|-5-6-|-
    
    E|-------------|-4-------|-----------------|-----------------|---------
    B|-6-----6-----|---4-4-3-|-----3-4-----3-4-|-----3-4-----3-4-|-------4-
    G|-7---7-----7-|-----4---|---0-------0-----|---0-------0-----|-----5---
    D|-6-6-----6---|-----0---|-----------------|-----------------|---4-----
    A|-------------|-3---2---|-3-------3-------|-1-------1-------|-0-------
    E|-------------|-------3-|-----------------|-----------------|---------
    
    E|---------|-----------------|-----------------|-----------------|-----
    B|-------4-|-------3-------3-|-----3-4-----3-4-|-------4-------4-|-----
    G|-----5---|-----4-------4---|---0-------0-----|-----5-------5---|-----
    D|---4-----|---3-------3-----|-----------------|---4-------4-----|---3-
    A|-0-------|-----------------|-3-------3-------|-----------------|-0---
    E|---------|-4-------3-------|-----------------|-6-------6-------|-----
    
    E|-------------|-----------------|-------------3-|-2-2-----3-----0-|---
    B|---4-------4-|-------3-------3-|-------5-3-5---|-----------------|---
    G|-5-------5---|-----4-------4---|-----0---------|-----2-------0---|---
    D|-------3-----|---3-------3-----|---5-----------|-------4---4-----|---
    A|-----0-------|-----------------|-3-------------|-----------------|-7-
    E|-------------|-4-------3-------|---------------|-----------------|---
    
    E|-----0---|-----3-|-0---|-----|-------8/10---|-----|---------------|---
    B|-------0-|-4---3-|-5---|-4-4-|-8-7-8------8-|-7---|---------10----|---
    G|---0-----|-4-2-0-|-6-3-|-2-2-|--------------|---9-|---------------|-5/
    D|-5-------|-4---0-|-5---|-4-4-|--------------|-----|-10-9-10----10-|---
    A|---------|-2-----|-4---|-3-2-|--------------|-----|---------------|---
    E|---------|-------|-----|-----|--------------|-----|---------------|---…
  • Legend
    ------
    
     h  = hammer-on
     p  = pull-off
     b  = bend
     r  = bend release
     /  = slide up/down
     = natural harmonic
    [5] = artifical harmonic
     ~  = vibrato
     tr = trill
    
    Tuning (low to high) = E A D G B E 
    
    
    
      0:00  Piano…
  • Normal Tuning!!
    		      	    Guitar enters at (0:49)
    E-----------------------------------------------------------------------------------|
    B-------------------------|---------------------------------------------------------|
    G--Bass-&-Keyboard-Intro--|*--------------------------------------------------------|
    D-------------------------|*--------------------------------------------------|
    A-------------------------|---------------------------------------------------------|
    E----------------------------0-0-0--0--0--0-0-0-0--0--0--0-0-0-0--0--0--0-0-0-------|
    
    E-----------------------------------------------------------------------------------|
    B-----------------------------------------------------------------------------------|
    G-----------------------------------------------------------------------------------|
    D-/--/---------------------------------------------------|
    A-------------/------------------------------------------------------------------|
    E---------------------0-0-0--0--0--0-0-0-0--0--0------------------------------0-0|
    
    E-----------------------------------------------------------------------------------|
    B-----------------------------------------------------------------------------------|
    G-----------------------------------------------------------------------------------|
    D------------------------------------------------/--/-------------------|
    A------------------------------------------------------------------/-------------|
    E-0--0--0--0-0-0-0--0--0--0-0-0-0--0--0--0-0-0-----------------------------0-0-0-|…
  • G5
     4/4
      Gtr I
    |-------------------|----------------|-----------------|-3----|
    |-------------------|----------------|-----------------|-3----|
    |-------------------|----------------|-----0----0----0-|-0----|
    |-------------------|-3-5------------|-----------------|-0----|
    |---3-5---------3-5-|----------3-5---|-----------------|------|
    |-5-----5-(5)-5-----|-----2--5-----1-|-(1)---0----1----|-3----|…
  • /  slide up
      slide down
    ^  bend
    h  hammer on
    p  pull off
    
    
    First minute and fifteen seconds opens with piano
    
    
    First guitar solo
    
    E:--------------------------------------------------
    B:---------------------------------------------17^^-
    G:-------7---(7)/-------9-7--------11---(11)/-------
    D:--4-5------------X---------4-5--------------------
    A:--------------------------------------------------
    E:--------------------------------------------------
    
    E:--------------------------------------------------
    B:--------------------------------17-15----10h12-10-
    G:-------7--14--14^R12/11-11-12--------------------
    D:--4-5---------------------------------------------
    A:--------------------------------------------------
    E:--------------------------------------------------
    
    E:--------------------------------------------------
    B:------------------------------------17^-17^--15^R-
    G:--12-9^-9^-(9)p7p5-----------14-16----------------
    D:-------------------7------16----------------------
    A:--------------------------------------------------
    E:--------------------------------------------------
    
    E:----------------------------------------
    B:----------------------------------17-20-
    G:--171614--------------------171920------
    D:--------171614--------171920------------
    A:---------------17-----------------------
    E:----------------------------------------
    
    E:----------17-------------------------------------
    B:-17-19-20----20p19-19p17----17-------------------
    G:-------------------------19----21---21-19-17-16--
    D:-------------------------------------------------
    A:-------------------------------------------------
    E:-------------------------------------------------
    
    E:-------------------------------------------------
    B:-------------------------------------------------
    G:---16---16---16----16---16---16---16----16-------
    D:-19---17---16---14----19---17---16---14-----12---
    A:-------------------------------------------------
    E:-------------------------------------------------…
Наверх