Аккорды «Lisa Loeb»

Lisa Loeb
Лиза Энн Лоб (англ. Lisa Anne Loeb; 11 марта 1968, Бетесда (Мэриленд), США) — американская певица, гитаристка и актриса. Лиза Энн Лоб (англ. Lisa Anne Loeb; 11 марта 1968, Бетесда (Мэриленд), США) — американская певица, гитаристка и актриса. Скрыть...
Популярные аккорды Lisa Loeb:
алфавиту | просмотрам | случайно
  • Intro: Bb5   Bb5/A   Gm7     Eb5      x2
    
    
    Verse:
                             Bb5    Bb5/A            Gm7
    When I'm done with thinking, then I'm done with you
                             
                             Bb5    Bb5/A…
  • Chords:
           EAGDBe
    C#5    x46600
    F#     244322
    E      022100
    Esus   022200
    G      355400  Open stringed chord
    A(open)577600  Open stringed chord
    B      799800  Open stringed chord
    E(open)079900  Open stringed…
  • Chords:
    Em  022000
    D   xx0232
    C   x32010
    Am  002210
    Em(bar)  779987
    Bb  113331
    Bm  224432
    
    
    Intro:
    
    Em   D   C   D   Am   D
    Em   D   C   D   Em - Am - Em
    
    Em(bar)                   Am - Bb - Bm                Em(bar)  Am…
  • Capo Second Fret:
    
        E(open)       A             C           E
    e---0-------------0-------------0-----------0---------------------------------
    B---0-------------0-------------0-----------0---------------------------------
    G---9-------------6-------------5-----------1---------------------------------
    D---9-------------7-------------5-----------2---------------------------------
    A---7-------------7-------------3-----------2---------------------------------
    E---0-------------0-------------0-----------0---------------------------------
    
    
    The…
  • Intro: C#m7      Bsus      Asus2        E       x2
    
    
    C#m7           Bsus      Asus2        E       
         I didn't come this far    
    C#m7              E5                       Bsus   Asus2
         for you to make it this hard…
  • chords used in the song…
    
       C#m7/E  E   B11/E   A
    e----0-----0-----0-----0---
    B----0-----0-----0-----2---
    G----6-----1-----4-----2---
    D----6-----2-----4-----2---
    A----4-----2-----2-----0---
    E----0-----0-----0-----0---
    
    
    intro:…
  • STANDARD TUNING
    
    
    E--------11----------6------------|
    B----------------6----------------|
    G-----13-------6---6--------------|
    D--11--------8--------------------|
    A---------------------------------|
    E---------------------------------|
    
    
    E---------------------------------9-9999----|
    B---------------------------------9-9999----|
    G-------8----------10----------11-----------|
    D-----8---------10----------11--------------|
    A-8-6-----6s8-8-------8s9-9-----------------|
    E-------------------------------------------|
    
    E---6--4-------|
    B---6--4-------|
    G---8--6-------|
    D---8--6-------|	4x
    A---6--4-------|
    E---6--4-------|
    
    
    E---9----------------2-------------|
    B---9----------------2-------------|
    G---11---------------2-------------|
    D---11---------------4-------------|
    A---9----------------4-------------|
    E---9----------------2-------------|
    
    E---6--4-------|
    B---6--4-------|
    G---8--6-------|
    D---8--6-------|	2x
    A---6--4-------|
    E---6--4-------|
    
    E--------11----------6------------|
    B----------------6----------------|
    G-----13-------6---6--------------|
    D--11--------8--------------------|
    A---------------------------------|
    E---------------------------------|
    
    E---------------------------------9-9999---------------------------------------|
    B---------------------------------9-9999---------------------------------------|
    G-------8----------10----------11----------------------------------------------|…
  • Intro: Bm G A5 Bm    x2
    
    
    Verse: 
                    G5     A                Bm
    You want to suffer and show me you're angry,
                    G5          A                Bm
    Fight with your fists up or call for your mommy…
  • The first two lines is the accoustic intro
    
      D                               A
    
      1   +   2   +   3   +   4   +   1   +   2   +   3   +   4   +
    e----------------------------------------------------------------------------
    B-7---7---7--xx--x7-----7-7-x-7---5---5---5--xx--x5-----5-5-x-5--------------
    G-7---7---7--xx--x7-----7-7-x-7---6---6---6--xx--x6-----6-6-x-6--------------
    D-7---7---7--xx--x7-----7-7-x-7---7---7---7--xx--x7-----7-7-x-7--------------
    A-5---5---5--xx--x5-----5-5-x-5---7---7---7--xx--x7-----7-7-x-7--------------
    E---------------------------------5---5---5--xx--x5-----5-5-x-5--------------…
Наверх