Аккорды «Lit»

Lit
Начало 90-х, Orange County, California... В этом месте и в это время мир увидели множество новых панк-комманд, которые на волне успеха "монстров жанра" впоследствии достигли заметного успеха. Одной из таких групп стали четверо парней, назвавшие себя Lit и принявшиеся деловито играть некую смесь поп-панка с гранджем. Прямо скажем, дела группы шли с очень умеренным успехом до тех пока в 1999 году свет не увидел альбом A Place In The Sun, который вскоре стал платиновым и прославил новую для многих… Читать полностью... Начало 90-х, Orange County, California... В этом месте и в это время мир увидели множество новых панк-комманд, которые на волне успеха "монстров жанра" впоследствии достигли заметного успеха. Одной из таких групп стали четверо парней, назвавшие себя Lit и принявшиеся деловито играть некую смесь поп-панка с гранджем. Прямо скажем, дела группы шли с очень умеренным успехом до тех пока в 1999 году свет не увидел альбом A Place In The Sun, который вскоре стал платиновым и прославил новую для многих комманду (а ведь они к тому времени играли уже 9 лет!). Премия Billboard Music Award, совместные туры с The Offspring, Garbage, No Doubt и Памелла Андерсон в собственном клипе - о чём ещё можно мечтать! Сейчас группа - довольно популярный и любимый многими коллектив, а их гитарист Джереми Попов - отдельно уважаемый человек в сообществе гитаристов всего мира. В недавнем интервью группа заявила, что готовится к выпуску нового альбома в начале 2007 года. Скрыть...
Популярные аккорды Lit:
алфавиту | просмотрам | случайно
  • There are 4 main parts to this song:
    
       Guitar 1:
       E-----------------------------------
       B-----------------------------------
       G-----------6666----444444---444444-
       D----4444---6666----444444---444444-
       A----4444---4444----222020---222020-…
  • E5                   B5                  B5VII                 A5
          0 2 2 x x x          x 2 4 4 x x          7 9 9 x x x          x 0 2 2 x x
    
              A5V                  F#5                 B5/F#
          5 7 7 x x…
  • () -- Tied note
    
    
    Rest through the intro part...
    
       (watching this.. story about me...)
           W         E E E E E E E E   E E E E E E E E
    G|-------------|-----------------|-----------------|
    D|-------------|-----------------|-----------------|
    A|-----R-------|-----------------|-----------------|
    E|-------------|-2-2-2-2-2-2-2-2-|-2-2-2-2-2-2-2-2-|…
  • Tuning: Down 1/2 step (Eb Ab Db Gb)Low to High
    
    Intro and verse
    -------------------------------------------------
    -------------------------------------------------
    --------------------------------------5--5--4----
    -3--5--5--3--5--5--3--5---5--3--5--0-----------0-…
  • Tuning: Detune a semitone: Eb Ab Db Gb Bb Eb
       Key: *'s mean PALM MUTING
    
    
       Intro x8
       e:------------------|
       B:------------------|
       G:9--9--------------|
       D:9--9--8--8--9--9--|
       A:7--7--8--8--9--9--|
       E:------6--6--7--7--|…
  • Tuning: Eb Ab Db Gb Bb Eb
    
    
    INTRO 
    |-----------------------------------------------------|
    |-----------------------------------------------------|
    |-----------------------------------------------------|
    |-2---2-5---5-2---2-5---5-2---2-5---5-8-8-8-8-8-8-8-8-|
    |-2---2-5---5-2---2-5---5-2---2-5---5-8-8-8-8-8-8-8-8-|
    |-0---0-3---3-0---0-3---3-0---0-3---3-6-6-6-6-6-6-6-6-|
    
    
    VERSE
    |-----------------------------------------------------|
    |-----------------------------------------------------|
    |-----------------------------------------------------|
    |-2-----------------------------------8-8-8-8-8-8-8-8-|
    |-2-----------------------------------8-8-8-8-8-8-8-8-|
    |-0-----------------------------------6-6-6-6-6-6-6-6-|
    
    
    PRECHORUS…
  • TUNING:
    half step down ---> Eb Ab Db Gb Bb eb
    
    CHORDS USED:
     E---3------3-------0------0------0------2-|
     B---3------3-------1------1------0------3-|
     G---0------0-------0------2------0------2-|
     D---0------2-------2------2------2------0-|…
  • e------------------------------------------------
    B------------------------------------------------
    G-7---7---2---2-------------7--------------------
    D-7---7---2---2---2---2-------7------------------
    A-5---5---0---0---2---2---5----------------------
    E-----------------0---0--------------------------
    
    e------------------------------------------------
    B------------------------------------------------
    G-7---7---2---2-------------7--------------------
    D-7---7---2---2---2---2-------7------------------
    A-5---5---0---0---2---2---5----------------------
    E-----------------0---0--------------------------
    
    e------------------------------------------------
    B------------------------------------------------
    G-7---7---2---2-------------7--------------------
    D-7---7---2---2---2---2-------7------------------
    A-5---5---0---0---2---2---5----------------------
    E-----------------0---0--------------------------…
  • Tuning: E A D G B E
    
    
    INTRO
    |--------------------------------|
    |--------------------------------|
    |-----------------------------5--|
    |-5-4-5-x-x-5-5-4-5-x-x-5-5-4-5--|
    |-5-4-5-x-x-5-5-4-5-x-x-5-5-4-3--|
    |-3-2-3-x-x-3-3-2-3-x-x-3-3-2----|
    
    |-------------------------------|
    |-------------------------------|
    |-------------------------------|
    |-5-4-5-x-x-5-5-4-5-x-x-5-4--4--|
    |-5-4-5-x-x-5-5-4-5-x-x-5-4--4--|
    |-3-2-3-x-x-3-3-2-3-x-x-3-2--2--|
    
    
    VERSE…
  • Intro
    E-----------------------------------|
    B-----------------------------------|
    G-----------------------------------|
    D--x--x--xxx-x-xx-------------------|
    A--x--x--xxx-x-xx-------------------|
    E--x--x--xxx-x-xx-------------------|
    
    Verse
    E-----------------------------------|
    B-----------------------------------|
    G--4-4------6-6---------------------|…
  • ~ = Ring out
    
    Intro:(0:00)
    G----------------------------------------5-----------|
    D--------------------------------------5------5-4-3--|
    A--3--33333333---------1-2-3-33333333-3-3----------6-|
    E-4-4---------4444444-3-------------------4444-------|
    
    G----------------------------------------------------|
    D----------------------------------------------------|
    A-33333333-----------33333333------------------------|
    E---------44444444-3---------44444444-3--------------|
    
    Verse(x2):(0:26)
    G--------------------------------------------------------------|
    D--------------------------------------------------------------|
    A-3-3-3-3-3-3-3-3---------------3-3-3-3-3-3-3-3----------------|
    E----------------4-4-4-4-4-4-4-4---------------4-4-4-4-4-4-4-3-|
    
    Chrous:(0:48)
    G------------------…
  • Intro
    G|-----|----------------------------------------------
    D|-----|----------------------------------------------
    A|-----|-3-3-3-3--------------------------------------
    E|-1---|---------3-3-3-3-0h1-1-1--1-1-1-0h1-1-1--1-1-1…
  • Standard Tuning
    
    [Intro]  
    
    (Riff) guitar effect....not sure if it's rite or not....
    e|--------------------------------------|
    B|--------------------------------------|
    G|--------------------------------------| repeat several…
  • Tuning: Tune down Half step: Eb
    
       Intro x2
       e:---------------------------------------------------------------------------|
       B:---------------------------------------------------------------------------|
       G:12-12-12-12-12-12-12-12-12-12-12-12-12-12-12-12-12-12-12-12-12-12-12-12-12-|…
  • e|-3-------0-0-0-0-0---|
    B|-0-0-1-3-1-1-3-3-3---|
    G|-0-------0-0-2-2-2---|
    D|-0-------2-2-0-0-0---|
    A|-2-------3-3---------|
    E|-3-------------------|
    
               G                 C
    It’s just another reason why
       D…
  • Drop D tuning.
    
    
            intro                                                           
    G---||------------------------------------------------------------------
    D---||------------------------------------------------------------------
    A---||--------------5--5--0--0--0--0--0--------0--0--0--0--0------------
    D---||-----------------------------------5--5-----------------5--5------…
  • Drop-D tuning
    xxxx       Muffled strings
    PM         Palm muting
    ~~~~       Vibrating
    h          Hammer on
    p          Pull off
    /////      Pick Scrape
    
    
    Intro part 1
    
    e[xxxxxxxxxxxxxxxxxxxxxxxxxxxxxxxxxxxxxxxxxxxxxxxxxxxxxxxxxxxxxxxxxxxxxxxxxxxxx
    B[xxxxxxxxxxxxxxxxxxxxxxxxxxxxxxxxxxxxxxxxxxxxxxxxxxxxxxxxxxxxxxxxxxxxxxxxxxxxx
    G[xxxxxxxxxxxxxxxxxxxxxxxxxxxxxxxxxxxxxxxxxxxxxxxxxxxxxxxxxxxxxxxxxxxxxxxxxxxxx
    D[xxxxxxxxxxxxxxxxxxxxxxxxxxxxxxxxxxxxxxxxxxxxxxxxxxxxxxxxxxxxxxxxxxxxxxxxxxxxx
    A[xxxxxxxxxxxxxxxxxxxxxxxxxxxxxxxxxxxxxxxxxxxxxxxxxxxxxxxxxxxxxxxxxxxxxxxxxxxxx
    D[xxxxxxxxxxxxxxxxxxxxxxxxxxxxxxxxxxxxxxxxxxxxxxxxxxxxxxxxxxxxxxxxxxxxxxxxxxxxx
    
    
    Intro…
  • Tuning: Eb Ab Db Gb Bb Eb
    
    
    INTRO
    |-------------------------|
    |-------------------------|
    |-4--4--4--4--4--4--4--4--|
    |-4--4--4--4--4--4--4--4--|
    |-2--2--2--2--2--2--2--2--|
    |-------------------------|
    
    
    VERSE
    |----------------------------------|
    |----------------------------------|
    |-4--4--4--4--4--4--4--4-----------|
    |-4--4--4--4--4--4--4--4--2--------|
    |-2--2--2--2--2--2--2--2--2--------|
    |-------------------------0--------|
    
    
    PRECHORUS
    |----------------------------------------------------------------------------------------------|
    |----------------------------------------------------------------------------------------------|
    |-7------------------7-------------------------------------------------------------------------|
    |-7----7----5--------7----7----5-5-5-5-5-5-5-5-5-5-5-5-5-5-5-5-4-4-4-4-4-4-4-4-4-4-4-4-4-4-4-4-|
    |-5----7----5--------5----7----5-5-5-5-5-5-5-5-5-5-5-5-5-5-5-5-4-4-4-4-4-4-4-4-4-4-4-4-4-4-4-4-|
    |------5----3-------------5----3-3-3-3-3-3-3-3-3-3-3-3-3-3-3-3-2-2-2-2-2-2-2-2-2-2-2-2-2-2-2-2-|…
  • Tuning: Eb Ab Db Gb Bb Eb
    
    
    INTRO
    |-----0------0----0--0----------------------0------0----0--0-------------|
    |-----0---/2----0----0----------------------0---/2----0----0-------------|
    |--------------------1---1h2p1---1/4~~-1-2-----------------1---1h2p1~~~~-|
    |-2------------------2-------------------------------------2-------------|
    |-0------------------2-------------------------------------2-------------|
    |--------------------0-------------------------------------0-------------|
    
    
    VERSE
    |-0--------0--------|
    |-2--------0--------|
    |-2--------1--------|
    |-2--------2--------|
    |-0--------2--------|
    |----------0--------|
    
    
    CHORUS
    |---------------------------------------|
    |---------------------------------------|
    |-------------------2-------------------|
    |-2--------4--------2--------2----6r4~~-|
    |-2--------4--------0--------2----------|
    |-0--------2-----------------0----------|
    
    |--------------------------------------------|
    |--------------------------------------------|
    |-------------------2------------------------|
    |-2--------4--------2--------6-6-6-6-6-6-6-6-|
    |-2--------4--------0--------6-6-6-6-6-6-6-6-|
    |-0--------2-----------------4-4-4-4-4-4-4-4-|
    
    
    BRIDGE
    |-----------------------------------|
    |-----------------------------------|
    |-6-----------------5-5-5-5---------|
    |-6--------7--------5-5-5-5-6-6-6-6-|
    |-4--------7--------3-3-3-3-6-6-6-6-|
    |----------5----------------4-4-4-4-|
    
    
    CHORUS…
Наверх