Аккорды Little Big - Rock-Paper-Scissors

Добавлено: @romashka
Дата добавления: 20 Ноября 2019г.
Рейтинг:
0.0
Просмотров: 19
Транспонировать - +
Вступление / Куплеты:
     Е  Е  Е  S  S Е  Е  Е  Е     Е  Е  Е  S S Е  Е  Е  Е   
E||----------------------------|---------------------------|
B||----------------------------|---------------------------|
G||----------------------------|---------------------------|
D||----------------------------|---------------------------|
A||----------------------4--5--|---------------------4--5--|
E||--7-----7--5h-7----7--------|--7--7--7--5-7----7--------|

  Е  Е  Е  S  S Е  Е  Е  Е     Е  Е  Е  S  S Е  Е  Е  Е   
----------------------------|----------------------------|
----------------------------|----------------------------|
----------------------------|----------------------------|
----------------------------|-------------------4--------|
----------------------4--5--|----------------------7--5--|
--7-----7--5h-7----7--------|--7--7--7--5h-7-------------|

  Е  Е  Е  S S Е  Е  Е  Е     Е  Е  Е  S  S Е  Е  Е  Е   
---------------------------|----------------------------|
---------------------------|----------------------------|
---------------------------|----------------------------|
---------------------------|----------------------------|
---------------------4--5--|----------------------4--5--|
--7--7--7--5-7----7--------|--7-----7--5h-7----7--------|

  Е  Е  Е  S S Е  Е  Е  Е     Е  Е  Е  S  S Е  Е  Е  Е   
---------------------------|----------------------------|
---------------------------|----------------------------|
---------------------------|----------------------------|
---------------------------|-------------------4--------|
---------------------4--5--|----------------------7--5--|
--7--7--7--5-7----7--------|--7-----7--5h-7-------------|

Куплет 1:
Am
I'm a stray, nasty dawg, who do you think you are
Hello big bad boy, look behind with this cur
Got no class, no manners, not what you see
If you wanna test your might—gotta play with me

Припев:
 Q    Е  Е  Е  Е  Е  Е     Q    Е  Е  Е  Е  Q       Q    Е  Е  Е  Е  Е  Е   
-------------------------|------------------------|-------------------------|
-------------------2-----|------------------------|-------------------2-----|
--3----3--1--3--4--1-----|--3----3--1--3--1-------|--3----3--1--3--4--1-----|
--3----3-----------------|--3----3--------2-------|--3----3-----------------|
-------------------------|------------------------|-------------------------|
-------------------------|------------------------|-------------------------|

  Q    Е  Е  Е  Е  Q      
------------------------||
------------------------||
--3----3--1--3--1-------||
--3----3--------2-------||
------------------------||
------------------------||

Rock-paper-scissors, rock, rock-paper-scissors
Rock-paper-scissors, rock, rock, I'm a winner
Rock-paper-scissors, rock, rock-paper-scissors
Rock-paper-scissors, rock, rock, I'm a winner

Meow!
Rock-paper-scissors, rock, rock-paper-scissors
Meow!
Rock-paper-scissors, rock-rock-rock…

Куплет 2:
Am
I'm like "What the hell you talking, who do you think I am?"
Lad, you god damn wrong, I have never be scammed
Imma beat you down, gonna play like a toy
Do you wanna test your might—I'm the bad boy
Dog

Припев:
Rock-paper-scissors, rock, rock-paper-scissors
Rock-paper-scissors, rock, rock, I'm a winner
Rock-paper-scissors, rock, rock-paper-scissors
Rock-paper-scissors, rock, rock, I'm a winner
Rock-paper-scissors, rock, rock-paper-scissors
Rock-paper-scissors, rock, rock, I'm a winner
Rock-paper-scissors, rock, rock-paper-scissors
Rock-paper-scissors, rock, rock, I'm a winner

Rock
Paper
Scissors
Rock-paper-scissors, rock
Rock
Paper
Scissors
Rock-paper-scissors, rock
Rock-paper-scissors, rock, rock-paper-scissors
Rock-paper-scissors, rock, rock, I'm a winner
Rock-paper-scissors, rock, rock-paper-scissors
Rock-paper-scissors, rock, rock, I'm a winner

Rock-paper-scissors, rock, rock-paper-scissors
Rock-paper-scissors, rock, rock, I'm a winner
Rock-paper-scissors, rock, rock-paper-scissors
Rock-paper-scissors, rock, rock, I'm a winner

Rock-paper-scissors, rock, rock-paper-scissors
Rock-paper-scissors, rock, rock, I'm a winner
comments powered by Disqus
Наверх